ISO-10303-21;
HEADER;
FILE_DESCRIPTION( ( 'STEP AP214' ), '1' );
FILE_NAME( 'C:/Users/azilaghe/AppData/Local/Temp/psolqas_1104_16.stp', '2021-03-04T17:30:56', ( 'License CC BY-ND 4.0' ), ( 'CADENAS' ), ' ', 'PARTsolutions', ' ' );
FILE_SCHEMA( ( 'AUTOMOTIVE_DESIGN { 1 0 10303 214 1 1 1 1 }' ) );
ENDSEC;
DATA;
#1 = MECHANICAL_DESIGN_GEOMETRIC_PRESENTATION_REPRESENTATION( ' ', ( #10, #11, #12, #13, #14, #15, #16, #17, #18, #19 ), #6 );
#2 = PRODUCT_DEFINITION_CONTEXT( '', #20, 'design' );
#3 = APPLICATION_PROTOCOL_DEFINITION( 'international standard', 'automotive_design', 2001, #20 );
#4 = PRODUCT_CATEGORY_RELATIONSHIP( 'NONE', 'NONE', #21, #22 );
#5 = SHAPE_DEFINITION_REPRESENTATION( #23, #24 );
#6 =  ( GEOMETRIC_REPRESENTATION_CONTEXT( 3 )GLOBAL_UNCERTAINTY_ASSIGNED_CONTEXT( ( #27 ) )GLOBAL_UNIT_ASSIGNED_CONTEXT( ( #29, #30, #31 ) )REPRESENTATION_CONTEXT( 'NONE', 'WORKSPACE' ) );
#10 = STYLED_ITEM( '', ( #33 ), #34 );
#11 = STYLED_ITEM( '', ( #35 ), #36 );
#12 = STYLED_ITEM( '', ( #37 ), #38 );
#13 = STYLED_ITEM( '', ( #39 ), #40 );
#14 = STYLED_ITEM( '', ( #41 ), #42 );
#15 = STYLED_ITEM( '', ( #43 ), #44 );
#16 = STYLED_ITEM( '', ( #45 ), #46 );
#17 = STYLED_ITEM( '', ( #47 ), #48 );
#18 = STYLED_ITEM( '', ( #49 ), #50 );
#19 = STYLED_ITEM( '', ( #51 ), #52 );
#20 = APPLICATION_CONTEXT( 'core data for automotive mechanical design processes' );
#21 = PRODUCT_CATEGORY( 'part', 'NONE' );
#22 = PRODUCT_RELATED_PRODUCT_CATEGORY( 'detail', ' ', ( #53 ) );
#23 = PRODUCT_DEFINITION_SHAPE( 'NONE', 'NONE', #54 );
#24 = ADVANCED_BREP_SHAPE_REPRESENTATION( 'Dentino x3', ( #55, #56 ), #6 );
#27 = UNCERTAINTY_MEASURE_WITH_UNIT( LENGTH_MEASURE( 1.00000000000000E-06 ), #29, '', '' );
#29 =  ( CONVERSION_BASED_UNIT( 'METRE', #59 )LENGTH_UNIT(  )NAMED_UNIT( #62 ) );
#30 =  ( NAMED_UNIT( #64 )PLANE_ANGLE_UNIT(  )SI_UNIT( $, .RADIAN. ) );
#31 =  ( NAMED_UNIT( #64 )SI_UNIT( $, .STERADIAN. )SOLID_ANGLE_UNIT(  ) );
#33 = PRESENTATION_STYLE_ASSIGNMENT( ( #70 ) );
#34 = ADVANCED_FACE( 'NONE', ( #71 ), #72, .F. );
#35 = PRESENTATION_STYLE_ASSIGNMENT( ( #73 ) );
#36 = ADVANCED_FACE( 'NONE', ( #74, #75 ), #76, .T. );
#37 = PRESENTATION_STYLE_ASSIGNMENT( ( #77 ) );
#38 = ADVANCED_FACE( 'NONE', ( #78, #79 ), #80, .T. );
#39 = PRESENTATION_STYLE_ASSIGNMENT( ( #81 ) );
#40 = ADVANCED_FACE( 'NONE', ( #82 ), #83, .F. );
#41 = PRESENTATION_STYLE_ASSIGNMENT( ( #84 ) );
#42 = ADVANCED_FACE( 'NONE', ( #85 ), #86, .F. );
#43 = PRESENTATION_STYLE_ASSIGNMENT( ( #87 ) );
#44 = ADVANCED_FACE( 'NONE', ( #88 ), #89, .F. );
#45 = PRESENTATION_STYLE_ASSIGNMENT( ( #90 ) );
#46 = ADVANCED_FACE( 'NONE', ( #91 ), #92, .F. );
#47 = PRESENTATION_STYLE_ASSIGNMENT( ( #93 ) );
#48 = ADVANCED_FACE( 'NONE', ( #94, #95 ), #96, .T. );
#49 = PRESENTATION_STYLE_ASSIGNMENT( ( #97 ) );
#50 = ADVANCED_FACE( 'NONE', ( #98, #99 ), #100, .F. );
#51 = PRESENTATION_STYLE_ASSIGNMENT( ( #101 ) );
#52 = ADVANCED_FACE( 'NONE', ( #102 ), #103, .F. );
#53 = PRODUCT( 'Dentino x3', 'Dentino x3', 'PART-Dentino x3-DESC', ( #104 ) );
#54 = PRODUCT_DEFINITION( 'NONE', 'NONE', #105, #2 );
#55 = MANIFOLD_SOLID_BREP( 'Dentino x3', #106 );
#56 = AXIS2_PLACEMENT_3D( '', #107, #108, #109 );
#59 = LENGTH_MEASURE_WITH_UNIT( LENGTH_MEASURE( 1.00000000000000 ), #110 );
#62 = DIMENSIONAL_EXPONENTS( 1.00000000000000, 0.000000000000000, 0.000000000000000, 0.000000000000000, 0.000000000000000, 0.000000000000000, 0.000000000000000 );
#64 = DIMENSIONAL_EXPONENTS( 0.000000000000000, 0.000000000000000, 0.000000000000000, 0.000000000000000, 0.000000000000000, 0.000000000000000, 0.000000000000000 );
#70 = SURFACE_STYLE_USAGE( .BOTH., #111 );
#71 = FACE_OUTER_BOUND( '', #112, .T. );
#72 = PLANE( '', #113 );
#73 = SURFACE_STYLE_USAGE( .BOTH., #114 );
#74 = FACE_OUTER_BOUND( '', #115, .T. );
#75 = FACE_OUTER_BOUND( '', #116, .T. );
#76 = CYLINDRICAL_SURFACE( '', #117, 0.0127000000000000 );
#77 = SURFACE_STYLE_USAGE( .BOTH., #118 );
#78 = FACE_OUTER_BOUND( '', #119, .T. );
#79 = FACE_BOUND( '', #120, .T. );
#80 = PLANE( '', #121 );
#81 = SURFACE_STYLE_USAGE( .BOTH., #122 );
#82 = FACE_OUTER_BOUND( '', #123, .T. );
#83 = PLANE( '', #124 );
#84 = SURFACE_STYLE_USAGE( .BOTH., #125 );
#85 = FACE_OUTER_BOUND( '', #126, .T. );
#86 = PLANE( '', #127 );
#87 = SURFACE_STYLE_USAGE( .BOTH., #128 );
#88 = FACE_OUTER_BOUND( '', #129, .T. );
#89 = PLANE( '', #130 );
#90 = SURFACE_STYLE_USAGE( .BOTH., #131 );
#91 = FACE_OUTER_BOUND( '', #132, .T. );
#92 = PLANE( '', #133 );
#93 = SURFACE_STYLE_USAGE( .BOTH., #134 );
#94 = FACE_OUTER_BOUND( '', #135, .T. );
#95 = FACE_BOUND( '', #136, .T. );
#96 = PLANE( '', #137 );
#97 = SURFACE_STYLE_USAGE( .BOTH., #138 );
#98 = FACE_OUTER_BOUND( '', #139, .T. );
#99 = FACE_OUTER_BOUND( '', #140, .T. );
#100 = CYLINDRICAL_SURFACE( '', #141, 0.0105000000000000 );
#101 = SURFACE_STYLE_USAGE( .BOTH., #142 );
#102 = FACE_OUTER_BOUND( '', #143, .T. );
#103 = PLANE( '', #144 );
#104 = PRODUCT_CONTEXT( '', #20, 'mechanical' );
#105 = PRODUCT_DEFINITION_FORMATION_WITH_SPECIFIED_SOURCE( ' ', 'NONE', #53, .NOT_KNOWN. );
#106 = CLOSED_SHELL( '', ( #34, #46, #42, #48, #38, #52, #36, #40, #44, #50 ) );
#107 = CARTESIAN_POINT( '', ( 0.000000000000000, 0.000000000000000, 0.000000000000000 ) );
#108 = DIRECTION( '', ( 0.000000000000000, 0.000000000000000, 1.00000000000000 ) );
#109 = DIRECTION( '', ( 1.00000000000000, 0.000000000000000, 0.000000000000000 ) );
#110 =  ( LENGTH_UNIT(  )NAMED_UNIT( #62 )SI_UNIT( $, .METRE. ) );
#111 = SURFACE_SIDE_STYLE( '', ( #146 ) );
#112 = EDGE_LOOP( '', ( #147, #148 ) );
#113 = AXIS2_PLACEMENT_3D( '', #149, #150, #151 );
#114 = SURFACE_SIDE_STYLE( '', ( #152 ) );
#115 = EDGE_LOOP( '', ( #153 ) );
#116 = EDGE_LOOP( '', ( #154 ) );
#117 = AXIS2_PLACEMENT_3D( '', #155, #156, #157 );
#118 = SURFACE_SIDE_STYLE( '', ( #158 ) );
#119 = EDGE_LOOP( '', ( #159 ) );
#120 = EDGE_LOOP( '', ( #160, #161, #162, #163, #164, #165 ) );
#121 = AXIS2_PLACEMENT_3D( '', #166, #167, #168 );
#122 = SURFACE_SIDE_STYLE( '', ( #169 ) );
#123 = EDGE_LOOP( '', ( #170, #171 ) );
#124 = AXIS2_PLACEMENT_3D( '', #172, #173, #174 );
#125 = SURFACE_SIDE_STYLE( '', ( #175 ) );
#126 = EDGE_LOOP( '', ( #176, #177, #178, #179 ) );
#127 = AXIS2_PLACEMENT_3D( '', #180, #181, #182 );
#128 = SURFACE_SIDE_STYLE( '', ( #183 ) );
#129 = EDGE_LOOP( '', ( #184, #185 ) );
#130 = AXIS2_PLACEMENT_3D( '', #186, #187, #188 );
#131 = SURFACE_SIDE_STYLE( '', ( #189 ) );
#132 = EDGE_LOOP( '', ( #190, #191, #192, #193 ) );
#133 = AXIS2_PLACEMENT_3D( '', #194, #195, #196 );
#134 = SURFACE_SIDE_STYLE( '', ( #197 ) );
#135 = EDGE_LOOP( '', ( #198 ) );
#136 = EDGE_LOOP( '', ( #199 ) );
#137 = AXIS2_PLACEMENT_3D( '', #200, #201, #202 );
#138 = SURFACE_SIDE_STYLE( '', ( #203 ) );
#139 = EDGE_LOOP( '', ( #204, #205, #206, #207, #208, #209, #210, #211, #212, #213, #214, #215 ) );
#140 = EDGE_LOOP( '', ( #216 ) );
#141 = AXIS2_PLACEMENT_3D( '', #217, #218, #219 );
#142 = SURFACE_SIDE_STYLE( '', ( #220 ) );
#143 = EDGE_LOOP( '', ( #221, #222, #223, #224 ) );
#144 = AXIS2_PLACEMENT_3D( '', #225, #226, #227 );
#146 = SURFACE_STYLE_FILL_AREA( #228 );
#147 = ORIENTED_EDGE( '', *, *, #229, .F. );
#148 = ORIENTED_EDGE( '', *, *, #230, .F. );
#149 = CARTESIAN_POINT( '', ( 0.00524999999999992, 0.000700000000000000, 0.00909326673973665 ) );
#150 = DIRECTION( '', ( 0.249999999999996, -0.866025403784438, 0.433012701892222 ) );
#151 = DIRECTION( '', ( -0.960768922830524, -0.277350098112611, 0.000000000000000 ) );
#152 = SURFACE_STYLE_FILL_AREA( #231 );
#153 = ORIENTED_EDGE( '', *, *, #232, .F. );
#154 = ORIENTED_EDGE( '', *, *, #233, .T. );
#155 = CARTESIAN_POINT( '', ( 0.000000000000000, -0.00241515310536392, 0.000000000000000 ) );
#156 = DIRECTION( '', ( -0.000000000000000, 1.00000000000000, 0.000000000000000 ) );
#157 = DIRECTION( '', ( 0.000000000000000, 0.000000000000000, -1.00000000000000 ) );
#158 = SURFACE_STYLE_FILL_AREA( #234 );
#159 = ORIENTED_EDGE( '', *, *, #232, .T. );
#160 = ORIENTED_EDGE( '', *, *, #235, .F. );
#161 = ORIENTED_EDGE( '', *, *, #236, .F. );
#162 = ORIENTED_EDGE( '', *, *, #237, .F. );
#163 = ORIENTED_EDGE( '', *, *, #238, .F. );
#164 = ORIENTED_EDGE( '', *, *, #239, .F. );
#165 = ORIENTED_EDGE( '', *, *, #240, .F. );
#166 = CARTESIAN_POINT( '', ( 0.0105000000000000, 0.000000000000000, 0.000000000000000 ) );
#167 = DIRECTION( '', ( 0.000000000000000, -1.00000000000000, 0.000000000000000 ) );
#168 = DIRECTION( '', ( 0.000000000000000, 0.000000000000000, -1.00000000000000 ) );
#169 = SURFACE_STYLE_FILL_AREA( #241 );
#170 = ORIENTED_EDGE( '', *, *, #242, .F. );
#171 = ORIENTED_EDGE( '', *, *, #243, .F. );
#172 = CARTESIAN_POINT( '', ( -0.0105000000000000, 0.000700000000000000, 0.000000000000000 ) );
#173 = DIRECTION( '', ( -0.499999999999999, -0.866025403784439, 0.000000000000000 ) );
#174 = DIRECTION( '', ( -0.866025403784439, 0.499999999999999, 0.000000000000000 ) );
#175 = SURFACE_STYLE_FILL_AREA( #244 );
#176 = ORIENTED_EDGE( '', *, *, #245, .F. );
#177 = ORIENTED_EDGE( '', *, *, #230, .T. );
#178 = ORIENTED_EDGE( '', *, *, #246, .T. );
#179 = ORIENTED_EDGE( '', *, *, #238, .T. );
#180 = CARTESIAN_POINT( '', ( 0.000877016653792483, 0.000700000000000000, 0.0104633093134520 ) );
#181 = DIRECTION( '', ( 0.499999999999992, 0.000000000000000, 0.866025403784443 ) );
#182 = DIRECTION( '', ( -0.000000000000000, -1.00000000000000, 0.000000000000000 ) );
#183 = SURFACE_STYLE_FILL_AREA( #247 );
#184 = ORIENTED_EDGE( '', *, *, #248, .F. );
#185 = ORIENTED_EDGE( '', *, *, #249, .F. );
#186 = CARTESIAN_POINT( '', ( 0.00525000000000005, 0.000700000000000000, -0.00909326673973659 ) );
#187 = DIRECTION( '', ( 0.250000000000001, -0.866025403784440, -0.433012701892216 ) );
#188 = DIRECTION( '', ( 0.000000000000000, 0.447213595499955, -0.894427190999917 ) );
#189 = SURFACE_STYLE_FILL_AREA( #250 );
#190 = ORIENTED_EDGE( '', *, *, #251, .F. );
#191 = ORIENTED_EDGE( '', *, *, #243, .T. );
#192 = ORIENTED_EDGE( '', *, *, #252, .T. );
#193 = ORIENTED_EDGE( '', *, *, #236, .T. );
#194 = CARTESIAN_POINT( '', ( -0.00950000000000000, 0.000700000000000000, -0.00447213595499958 ) );
#195 = DIRECTION( '', ( -1.00000000000000, 0.000000000000000, 0.000000000000000 ) );
#196 = DIRECTION( '', ( 0.000000000000000, 0.000000000000000, 1.00000000000000 ) );
#197 = SURFACE_STYLE_FILL_AREA( #253 );
#198 = ORIENTED_EDGE( '', *, *, #233, .F. );
#199 = ORIENTED_EDGE( '', *, *, #254, .T. );
#200 = CARTESIAN_POINT( '', ( 0.0105000000000000, 0.00200000000000000, 0.000000000000000 ) );
#201 = DIRECTION( '', ( 0.000000000000000, 1.00000000000000, 0.000000000000000 ) );
#202 = DIRECTION( '', ( 1.00000000000000, 0.000000000000000, -0.000000000000000 ) );
#203 = SURFACE_STYLE_FILL_AREA( #255 );
#204 = ORIENTED_EDGE( '', *, *, #235, .T. );
#205 = ORIENTED_EDGE( '', *, *, #256, .F. );
#206 = ORIENTED_EDGE( '', *, *, #248, .T. );
#207 = ORIENTED_EDGE( '', *, *, #257, .T. );
#208 = ORIENTED_EDGE( '', *, *, #239, .T. );
#209 = ORIENTED_EDGE( '', *, *, #246, .F. );
#210 = ORIENTED_EDGE( '', *, *, #229, .T. );
#211 = ORIENTED_EDGE( '', *, *, #245, .T. );
#212 = ORIENTED_EDGE( '', *, *, #237, .T. );
#213 = ORIENTED_EDGE( '', *, *, #252, .F. );
#214 = ORIENTED_EDGE( '', *, *, #242, .T. );
#215 = ORIENTED_EDGE( '', *, *, #251, .T. );
#216 = ORIENTED_EDGE( '', *, *, #254, .F. );
#217 = CARTESIAN_POINT( '', ( 0.000000000000000, -0.00241515310536392, 0.000000000000000 ) );
#218 = DIRECTION( '', ( -0.000000000000000, 1.00000000000000, 0.000000000000000 ) );
#219 = DIRECTION( '', ( 0.000000000000000, 0.000000000000000, -1.00000000000000 ) );
#220 = SURFACE_STYLE_FILL_AREA( #258 );
#221 = ORIENTED_EDGE( '', *, *, #257, .F. );
#222 = ORIENTED_EDGE( '', *, *, #249, .T. );
#223 = ORIENTED_EDGE( '', *, *, #256, .T. );
#224 = ORIENTED_EDGE( '', *, *, #240, .T. );
#225 = CARTESIAN_POINT( '', ( 0.00862298334620745, 0.000700000000000000, -0.00599117335845234 ) );
#226 = DIRECTION( '', ( 0.500000000000004, 0.000000000000000, -0.866025403784436 ) );
#227 = DIRECTION( '', ( 0.000000000000000, -1.00000000000000, 0.000000000000000 ) );
#228 = FILL_AREA_STYLE( '', ( #259 ) );
#229 = EDGE_CURVE( 'NONE', #260, #261, #262, .T. );
#230 = EDGE_CURVE( 'NONE', #261, #260, #263, .T. );
#231 = FILL_AREA_STYLE( '', ( #264 ) );
#232 = EDGE_CURVE( 'NONE', #265, #265, #266, .T. );
#233 = EDGE_CURVE( 'NONE', #267, #267, #268, .T. );
#234 = FILL_AREA_STYLE( '', ( #269 ) );
#235 = EDGE_CURVE( 'NONE', #270, #271, #272, .T. );
#236 = EDGE_CURVE( 'NONE', #273, #270, #274, .T. );
#237 = EDGE_CURVE( 'NONE', #275, #273, #276, .T. );
#238 = EDGE_CURVE( 'NONE', #277, #275, #278, .T. );
#239 = EDGE_CURVE( 'NONE', #279, #277, #280, .T. );
#240 = EDGE_CURVE( 'NONE', #271, #279, #281, .T. );
#241 = FILL_AREA_STYLE( '', ( #282 ) );
#242 = EDGE_CURVE( 'NONE', #283, #284, #285, .T. );
#243 = EDGE_CURVE( 'NONE', #284, #283, #286, .T. );
#244 = FILL_AREA_STYLE( '', ( #287 ) );
#245 = EDGE_CURVE( 'NONE', #261, #275, #288, .T. );
#246 = EDGE_CURVE( 'NONE', #260, #277, #289, .T. );
#247 = FILL_AREA_STYLE( '', ( #290 ) );
#248 = EDGE_CURVE( 'NONE', #291, #292, #293, .T. );
#249 = EDGE_CURVE( 'NONE', #292, #291, #294, .T. );
#250 = FILL_AREA_STYLE( '', ( #295 ) );
#251 = EDGE_CURVE( 'NONE', #284, #270, #296, .T. );
#252 = EDGE_CURVE( 'NONE', #283, #273, #297, .T. );
#253 = FILL_AREA_STYLE( '', ( #298 ) );
#254 = EDGE_CURVE( 'NONE', #299, #299, #300, .T. );
#255 = FILL_AREA_STYLE( '', ( #301 ) );
#256 = EDGE_CURVE( 'NONE', #291, #271, #302, .T. );
#257 = EDGE_CURVE( 'NONE', #292, #279, #303, .T. );
#258 = FILL_AREA_STYLE( '', ( #304 ) );
#259 = FILL_AREA_STYLE_COLOUR( '', #305 );
#260 = VERTEX_POINT( 'NONE', #306 );
#261 = VERTEX_POINT( 'NONE', #307 );
#262 = ( BOUNDED_CURVE(  )B_SPLINE_CURVE( 3, ( #310, #311, #312, #313 ), .UNSPECIFIED., .F., .F. )B_SPLINE_CURVE_WITH_KNOTS( ( 4, 4 ), ( 2.70161669879887, 3.58156860838071 ), .UNSPECIFIED. )CURVE(  )GEOMETRIC_REPRESENTATION_ITEM(  )RATIONAL_B_SPLINE_CURVE( ( 1.00000000000000, 0.936507936507936, 0.936507936507936, 1.00000000000000 ) )REPRESENTATION_ITEM( '' ) );
#263 = LINE( '', #319, #320 );
#264 = FILL_AREA_STYLE_COLOUR( '', #321 );
#265 = VERTEX_POINT( '', #322 );
#266 = CIRCLE( '', #323, 0.0127000000000000 );
#267 = VERTEX_POINT( '', #324 );
#268 = CIRCLE( '', #325, 0.0127000000000000 );
#269 = FILL_AREA_STYLE_COLOUR( '', #326 );
#270 = VERTEX_POINT( 'NONE', #327 );
#271 = VERTEX_POINT( 'NONE', #328 );
#272 = CIRCLE( '', #329, 0.0105000000000000 );
#273 = VERTEX_POINT( 'NONE', #330 );
#274 = LINE( '', #331, #332 );
#275 = VERTEX_POINT( 'NONE', #333 );
#276 = CIRCLE( '', #334, 0.0105000000000000 );
#277 = VERTEX_POINT( 'NONE', #335 );
#278 = LINE( '', #336, #337 );
#279 = VERTEX_POINT( 'NONE', #338 );
#280 = CIRCLE( '', #339, 0.0105000000000000 );
#281 = LINE( '', #340, #341 );
#282 = FILL_AREA_STYLE_COLOUR( '', #342 );
#283 = VERTEX_POINT( 'NONE', #343 );
#284 = VERTEX_POINT( 'NONE', #344 );
#285 = ( BOUNDED_CURVE(  )B_SPLINE_CURVE( 3, ( #347, #348, #349, #350 ), .UNSPECIFIED., .F., .F. )B_SPLINE_CURVE_WITH_KNOTS( ( 4, 4 ), ( 2.70161669879887, 3.58156860838071 ), .UNSPECIFIED. )CURVE(  )GEOMETRIC_REPRESENTATION_ITEM(  )RATIONAL_B_SPLINE_CURVE( ( 1.00000000000000, 0.936507936507936, 0.936507936507936, 1.00000000000000 ) )REPRESENTATION_ITEM( '' ) );
#286 = LINE( '', #356, #357 );
#287 = FILL_AREA_STYLE_COLOUR( '', #358 );
#288 = LINE( '', #359, #360 );
#289 = LINE( '', #361, #362 );
#290 = FILL_AREA_STYLE_COLOUR( '', #363 );
#291 = VERTEX_POINT( 'NONE', #364 );
#292 = VERTEX_POINT( 'NONE', #365 );
#293 = ( BOUNDED_CURVE(  )B_SPLINE_CURVE( 3, ( #368, #369, #370, #371 ), .UNSPECIFIED., .F., .F. )B_SPLINE_CURVE_WITH_KNOTS( ( 4, 4 ), ( 2.70161669879887, 3.58156860838071 ), .UNSPECIFIED. )CURVE(  )GEOMETRIC_REPRESENTATION_ITEM(  )RATIONAL_B_SPLINE_CURVE( ( 1.00000000000000, 0.936507936507936, 0.936507936507936, 1.00000000000000 ) )REPRESENTATION_ITEM( '' ) );
#294 = LINE( '', #377, #378 );
#295 = FILL_AREA_STYLE_COLOUR( '', #379 );
#296 = LINE( '', #380, #381 );
#297 = LINE( '', #382, #383 );
#298 = FILL_AREA_STYLE_COLOUR( '', #384 );
#299 = VERTEX_POINT( '', #385 );
#300 = CIRCLE( '', #386, 0.0105000000000000 );
#301 = FILL_AREA_STYLE_COLOUR( '', #387 );
#302 = LINE( '', #388, #389 );
#303 = LINE( '', #390, #391 );
#304 = FILL_AREA_STYLE_COLOUR( '', #392 );
#305 = COLOUR_RGB( '', 0.250980407000000, 0.250980407000000, 0.250980407000000 );
#306 = CARTESIAN_POINT( '', ( 0.00862298334620736, 0.000122649730810374, 0.00599117335845246 ) );
#307 = CARTESIAN_POINT( '', ( 0.000877016653792483, 0.000122649730810374, 0.0104633093134520 ) );
#310 = CARTESIAN_POINT( '', ( 0.00862298334621736, 0.000122649730820374, 0.00599117335846245 ) );
#311 = CARTESIAN_POINT( '', ( 0.00680648559781256, 0.000905497553450376, 0.00860562446774629 ) );
#312 = CARTESIAN_POINT( '', ( 0.00404944660559710, 0.000905497553450376, 0.0101974016720681 ) );
#313 = CARTESIAN_POINT( '', ( 0.000877016653802483, 0.000122649730820374, 0.0104633093134620 ) );
#319 = CARTESIAN_POINT( '', ( 0.000877016653802483, 0.000122649730820374, 0.0104633093134620 ) );
#320 = VECTOR( '', #393, 1.00000000000000 );
#321 = COLOUR_RGB( '', 0.250980407000000, 0.250980407000000, 0.250980407000000 );
#322 = CARTESIAN_POINT( '', ( 0.000000000000000, 0.000000000000000, -0.0127000000000100 ) );
#323 = AXIS2_PLACEMENT_3D( '', #394, #395, #396 );
#324 = CARTESIAN_POINT( '', ( 0.000000000000000, 0.00200000000001000, -0.0127000000000100 ) );
#325 = AXIS2_PLACEMENT_3D( '', #397, #398, #399 );
#326 = COLOUR_RGB( '', 0.250980407000000, 0.250980407000000, 0.250980407000000 );
#327 = CARTESIAN_POINT( '', ( -0.00950000000000000, 0.000000000000000, -0.00447213595499958 ) );
#328 = CARTESIAN_POINT( '', ( 0.000877016653792634, 0.000000000000000, -0.0104633093134520 ) );
#329 = AXIS2_PLACEMENT_3D( '', #400, #401, #402 );
#330 = CARTESIAN_POINT( '', ( -0.00950000000000000, 0.000000000000000, 0.00447213595499958 ) );
#331 = CARTESIAN_POINT( '', ( -0.00950000000001000, 0.000000000000000, -0.00447213595500958 ) );
#332 = VECTOR( '', #403, 1.00000000000000 );
#333 = CARTESIAN_POINT( '', ( 0.000877016653792483, 0.000000000000000, 0.0104633093134520 ) );
#334 = AXIS2_PLACEMENT_3D( '', #404, #405, #406 );
#335 = CARTESIAN_POINT( '', ( 0.00862298334620737, 0.000000000000000, 0.00599117335845245 ) );
#336 = CARTESIAN_POINT( '', ( 0.000877016653802483, 0.000000000000000, 0.0104633093134620 ) );
#337 = VECTOR( '', #407, 1.00000000000000 );
#338 = CARTESIAN_POINT( '', ( 0.00862298334620745, 0.000000000000000, -0.00599117335845234 ) );
#339 = AXIS2_PLACEMENT_3D( '', #408, #409, #410 );
#340 = CARTESIAN_POINT( '', ( 0.00862298334621745, 0.000000000000000, -0.00599117335846234 ) );
#341 = VECTOR( '', #411, 1.00000000000000 );
#342 = COLOUR_RGB( '', 0.250980407000000, 0.250980407000000, 0.250980407000000 );
#343 = CARTESIAN_POINT( '', ( -0.00950000000000000, 0.000122649730810374, 0.00447213595499958 ) );
#344 = CARTESIAN_POINT( '', ( -0.00950000000000000, 0.000122649730810374, -0.00447213595499958 ) );
#347 = CARTESIAN_POINT( '', ( -0.00950000000001000, 0.000122649730820374, 0.00447213595500958 ) );
#348 = CARTESIAN_POINT( '', ( -0.0108559322033998, 0.000905497553450375, 0.00159177720433189 ) );
#349 = CARTESIAN_POINT( '', ( -0.0108559322033998, 0.000905497553450374, -0.00159177720433188 ) );
#350 = CARTESIAN_POINT( '', ( -0.00950000000001000, 0.000122649730820374, -0.00447213595500958 ) );
#356 = CARTESIAN_POINT( '', ( -0.00950000000001000, 0.000122649730820374, -0.00447213595500958 ) );
#357 = VECTOR( '', #412, 1.00000000000000 );
#358 = COLOUR_RGB( '', 0.250980407000000, 0.250980407000000, 0.250980407000000 );
#359 = CARTESIAN_POINT( '', ( 0.000877016653802483, 0.000700000000010000, 0.0104633093134620 ) );
#360 = VECTOR( '', #413, 1.00000000000000 );
#361 = CARTESIAN_POINT( '', ( 0.00862298334621736, 0.000700000000010000, 0.00599117335846245 ) );
#362 = VECTOR( '', #414, 1.00000000000000 );
#363 = COLOUR_RGB( '', 0.250980407000000, 0.250980407000000, 0.250980407000000 );
#364 = CARTESIAN_POINT( '', ( 0.000877016653792629, 0.000122649730810371, -0.0104633093134520 ) );
#365 = CARTESIAN_POINT( '', ( 0.00862298334620745, 0.000122649730810371, -0.00599117335845234 ) );
#368 = CARTESIAN_POINT( '', ( 0.000877016653802629, 0.000122649730820371, -0.0104633093134620 ) );
#369 = CARTESIAN_POINT( '', ( 0.00404944660559724, 0.000905497553450366, -0.0101974016720681 ) );
#370 = CARTESIAN_POINT( '', ( 0.00680648559781268, 0.000905497553450367, -0.00860562446774620 ) );
#371 = CARTESIAN_POINT( '', ( 0.00862298334621745, 0.000122649730820371, -0.00599117335846234 ) );
#377 = CARTESIAN_POINT( '', ( 0.00862298334621745, 0.000122649730820371, -0.00599117335846234 ) );
#378 = VECTOR( '', #415, 1.00000000000000 );
#379 = COLOUR_RGB( '', 0.250980407000000, 0.250980407000000, 0.250980407000000 );
#380 = CARTESIAN_POINT( '', ( -0.00950000000001000, 0.000700000000010000, -0.00447213595500958 ) );
#381 = VECTOR( '', #416, 1.00000000000000 );
#382 = CARTESIAN_POINT( '', ( -0.00950000000001000, 0.000700000000010000, 0.00447213595500958 ) );
#383 = VECTOR( '', #417, 1.00000000000000 );
#384 = COLOUR_RGB( '', 0.250980407000000, 0.250980407000000, 0.250980407000000 );
#385 = CARTESIAN_POINT( '', ( 0.000000000000000, 0.00200000000001000, -0.0105000000000100 ) );
#386 = AXIS2_PLACEMENT_3D( '', #418, #419, #420 );
#387 = COLOUR_RGB( '', 0.250980407000000, 0.250980407000000, 0.250980407000000 );
#388 = CARTESIAN_POINT( '', ( 0.000877016653802629, 0.000700000000010000, -0.0104633093134620 ) );
#389 = VECTOR( '', #421, 1.00000000000000 );
#390 = CARTESIAN_POINT( '', ( 0.00862298334621745, 0.000700000000010000, -0.00599117335846234 ) );
#391 = VECTOR( '', #422, 1.00000000000000 );
#392 = COLOUR_RGB( '', 0.250980407000000, 0.250980407000000, 0.250980407000000 );
#393 = DIRECTION( '', ( 0.866025403784441, 0.000000000000000, -0.499999999999995 ) );
#394 = CARTESIAN_POINT( '', ( 0.000000000000000, 0.000000000000000, 0.000000000000000 ) );
#395 = DIRECTION( '', ( 0.000000000000000, -1.00000000000000, 0.000000000000000 ) );
#396 = DIRECTION( '', ( 0.000000000000000, 0.000000000000000, -1.00000000000000 ) );
#397 = CARTESIAN_POINT( '', ( 0.000000000000000, 0.00200000000001000, 0.000000000000000 ) );
#398 = DIRECTION( '', ( 0.000000000000000, -1.00000000000000, 0.000000000000000 ) );
#399 = DIRECTION( '', ( 0.000000000000000, 0.000000000000000, -1.00000000000000 ) );
#400 = CARTESIAN_POINT( '', ( 0.000000000000000, 0.000000000000000, 0.000000000000000 ) );
#401 = DIRECTION( '', ( 0.000000000000000, -1.00000000000000, 0.000000000000000 ) );
#402 = DIRECTION( '', ( 0.000000000000000, 0.000000000000000, -1.00000000000000 ) );
#403 = DIRECTION( '', ( 0.000000000000000, 0.000000000000000, -1.00000000000000 ) );
#404 = CARTESIAN_POINT( '', ( 0.000000000000000, 0.000000000000000, 0.000000000000000 ) );
#405 = DIRECTION( '', ( 0.000000000000000, -1.00000000000000, 0.000000000000000 ) );
#406 = DIRECTION( '', ( 0.000000000000000, 0.000000000000000, -1.00000000000000 ) );
#407 = DIRECTION( '', ( -0.866025403784441, 0.000000000000000, 0.499999999999995 ) );
#408 = CARTESIAN_POINT( '', ( 0.000000000000000, 0.000000000000000, 0.000000000000000 ) );
#409 = DIRECTION( '', ( 0.000000000000000, -1.00000000000000, 0.000000000000000 ) );
#410 = DIRECTION( '', ( 0.000000000000000, 0.000000000000000, -1.00000000000000 ) );
#411 = DIRECTION( '', ( 0.866025403784434, 0.000000000000000, 0.500000000000007 ) );
#412 = DIRECTION( '', ( 0.000000000000000, 0.000000000000000, 1.00000000000000 ) );
#413 = DIRECTION( '', ( 0.000000000000000, -1.00000000000000, 0.000000000000000 ) );
#414 = DIRECTION( '', ( 0.000000000000000, -1.00000000000000, 0.000000000000000 ) );
#415 = DIRECTION( '', ( -0.866025403784434, 0.000000000000000, -0.500000000000007 ) );
#416 = DIRECTION( '', ( 0.000000000000000, -1.00000000000000, 0.000000000000000 ) );
#417 = DIRECTION( '', ( 0.000000000000000, -1.00000000000000, 0.000000000000000 ) );
#418 = CARTESIAN_POINT( '', ( 0.000000000000000, 0.00200000000001000, 0.000000000000000 ) );
#419 = DIRECTION( '', ( 0.000000000000000, -1.00000000000000, 0.000000000000000 ) );
#420 = DIRECTION( '', ( 0.000000000000000, 0.000000000000000, -1.00000000000000 ) );
#421 = DIRECTION( '', ( 0.000000000000000, -1.00000000000000, 0.000000000000000 ) );
#422 = DIRECTION( '', ( 0.000000000000000, -1.00000000000000, 0.000000000000000 ) );
ENDSEC;
END-ISO-10303-21;
