ISO-10303-21;
HEADER;
/****************************************************************
 * Generated by software with PDElib inside                    *
 * PDElib Version v51a, created Tue 11/30/2010                  *
 * ITI Transcendata (http://www.transcendata.com/)              *
 ****************************************************************/
FILE_DESCRIPTION((''),'2;1');
FILE_NAME('M:\\3D-Files nach Lieferanten\\Praher\\PV50250A\\PV50250A016.stp','2022-02-21T14:29:58',('RL'),(''),'Autodesk Inventor 2012','Autodesk Inventor 2012','');
FILE_SCHEMA(('AUTOMOTIVE_DESIGN { 1 0 10303 214 1 1 1 1 }'));
ENDSEC;
DATA;
#5=APPLICATION_CONTEXT('automotive design');
#6=APPLICATION_PROTOCOL_DEFINITION('International Standard','automotive_design',2001,#5);
#7=PRODUCT_CONTEXT('',#5,'mechanical');
#8=PRODUCT('PV50250A016','PV50250A016',$,(#7));
#9=PRODUCT_RELATED_PRODUCT_CATEGORY('part',$,(#8));
#10=PRODUCT_DEFINITION_FORMATION('',$,#8);
#11=PRODUCT_DEFINITION_CONTEXT('part definition',#5,'design');
#12=PRODUCT_DEFINITION('',$,#10,#11);
#18=(NAMED_UNIT(*)PLANE_ANGLE_UNIT()SI_UNIT($,.RADIAN.));
#19=DIMENSIONAL_EXPONENTS(0.0,0.0,0.0,0.0,0.0,0.0,0.0);
#20=PLANE_ANGLE_MEASURE_WITH_UNIT(PLANE_ANGLE_MEASURE(0.0174532925),#18);
#24=(CONVERSION_BASED_UNIT('DEGREE',#20)NAMED_UNIT(#19)PLANE_ANGLE_UNIT());
#28=(NAMED_UNIT(*)SI_UNIT($,.STERADIAN.)SOLID_ANGLE_UNIT());
#32=(LENGTH_UNIT()NAMED_UNIT(*)SI_UNIT(.MILLI.,.METRE.));
#34=UNCERTAINTY_MEASURE_WITH_UNIT(LENGTH_MEASURE(0.01),#32,'DISTANCE_ACCURACY_VALUE','');
#36=(GEOMETRIC_REPRESENTATION_CONTEXT(3)GLOBAL_UNCERTAINTY_ASSIGNED_CONTEXT((#34))GLOBAL_UNIT_ASSIGNED_CONTEXT((#24,#28,#32))REPRESENTATION_CONTEXT('None','None'));
#37=AXIS2_PLACEMENT_3D('',#38,#39,#40);
#38=CARTESIAN_POINT('',(0.0,0.0,0.0));
#39=DIRECTION('',(0.0,0.0,1.0));
#40=DIRECTION('',(1.0,0.0,0.0));
#41=SHAPE_REPRESENTATION('',(#37),#36);
#42=PRODUCT_DEFINITION_SHAPE('','',#12);
#43=SHAPE_DEFINITION_REPRESENTATION(#42,#41);
#49=(NAMED_UNIT(*)PLANE_ANGLE_UNIT()SI_UNIT($,.RADIAN.));
#50=DIMENSIONAL_EXPONENTS(0.0,0.0,0.0,0.0,0.0,0.0,0.0);
#51=PLANE_ANGLE_MEASURE_WITH_UNIT(PLANE_ANGLE_MEASURE(0.0174532925),#49);
#55=(CONVERSION_BASED_UNIT('DEGREE',#51)NAMED_UNIT(#50)PLANE_ANGLE_UNIT());
#59=(NAMED_UNIT(*)SI_UNIT($,.STERADIAN.)SOLID_ANGLE_UNIT());
#63=(LENGTH_UNIT()NAMED_UNIT(*)SI_UNIT(.MILLI.,.METRE.));
#65=UNCERTAINTY_MEASURE_WITH_UNIT(LENGTH_MEASURE(0.000001),#63,'DISTANCE_ACCURACY_VALUE','');
#67=(GEOMETRIC_REPRESENTATION_CONTEXT(3)GLOBAL_UNCERTAINTY_ASSIGNED_CONTEXT((#65))GLOBAL_UNIT_ASSIGNED_CONTEXT((#55,#59,#63))REPRESENTATION_CONTEXT('','3D'));
#68=CARTESIAN_POINT('',(3.875,0.0,0.0));
#69=DIRECTION('',(1.0,0.0,0.0));
#70=DIRECTION('',(0.0,0.0,-1.0));
#71=AXIS2_PLACEMENT_3D('',#68,#69,#70);
#72=CYLINDRICAL_SURFACE('',#71,12.5);
#73=CARTESIAN_POINT('',(7.75,1.530808E-015,12.5));
#74=VERTEX_POINT('',#73);
#75=CARTESIAN_POINT('',(7.75,0.0,0.0));
#76=DIRECTION('',(1.0,0.0,0.0));
#77=DIRECTION('',(0.0,0.0,-1.0));
#78=AXIS2_PLACEMENT_3D('',#75,#76,#77);
#79=CIRCLE('',#78,12.5);
#80=EDGE_CURVE('',#74,#74,#79,.T.);
#81=ORIENTED_EDGE('',*,*,#80,.F.);
#82=EDGE_LOOP('',(#81));
#83=FACE_OUTER_BOUND('',#82,.T.);
#84=CARTESIAN_POINT('',(0.0,1.530808E-015,12.5));
#85=VERTEX_POINT('',#84);
#86=CARTESIAN_POINT('',(0.0,0.0,0.0));
#87=DIRECTION('',(-1.0,0.0,0.0));
#88=DIRECTION('',(0.0,0.0,-1.0));
#89=AXIS2_PLACEMENT_3D('',#86,#87,#88);
#90=CIRCLE('',#89,12.5);
#91=EDGE_CURVE('',#85,#85,#90,.T.);
#92=ORIENTED_EDGE('',*,*,#91,.F.);
#93=EDGE_LOOP('',(#92));
#94=FACE_BOUND('',#93,.T.);
#95=ADVANCED_FACE('',(#83,#94),#72,.T.);
#96=CARTESIAN_POINT('',(27.125000000000004,0.0,0.0));
#97=DIRECTION('',(-1.0,0.0,0.0));
#98=DIRECTION('',(0.0,0.0,-1.0));
#99=AXIS2_PLACEMENT_3D('',#96,#97,#98);
#100=CYLINDRICAL_SURFACE('',#99,12.083000000000002);
#101=CARTESIAN_POINT('',(23.25,-1.479741E-015,12.083000000000002));
#102=VERTEX_POINT('',#101);
#103=CARTESIAN_POINT('',(23.25,0.0,0.0));
#104=DIRECTION('',(-1.0,0.0,0.0));
#105=DIRECTION('',(0.0,0.0,-1.0));
#106=AXIS2_PLACEMENT_3D('',#103,#104,#105);
#107=CIRCLE('',#106,12.083000000000002);
#108=EDGE_CURVE('',#102,#102,#107,.T.);
#109=ORIENTED_EDGE('',*,*,#108,.F.);
#110=EDGE_LOOP('',(#109));
#111=FACE_OUTER_BOUND('',#110,.T.);
#112=CARTESIAN_POINT('',(24.800000000000004,0.0,12.083000000000002));
#113=VERTEX_POINT('',#112);
#114=CARTESIAN_POINT('',(24.800000000000004,0.0,0.0));
#115=DIRECTION('',(-1.0,0.0,0.0));
#116=DIRECTION('',(0.0,0.0,-1.0));
#117=AXIS2_PLACEMENT_3D('',#114,#115,#116);
#118=CIRCLE('',#117,12.083000000000002);
#119=EDGE_CURVE('',#113,#113,#118,.T.);
#120=ORIENTED_EDGE('',*,*,#119,.T.);
#121=EDGE_LOOP('',(#120));
#122=FACE_BOUND('',#121,.T.);
#123=ADVANCED_FACE('',(#111,#122),#100,.T.);
#124=CARTESIAN_POINT('',(15.5,0.0,0.0));
#125=DIRECTION('',(1.0,0.0,0.0));
#126=DIRECTION('',(0.0,0.0,-1.0));
#127=AXIS2_PLACEMENT_3D('',#124,#125,#126);
#128=CYLINDRICAL_SURFACE('',#127,5.0);
#129=CARTESIAN_POINT('',(12.000000000000002,6.123234E-016,5.0));
#130=VERTEX_POINT('',#129);
#131=CARTESIAN_POINT('',(12.000000000000002,0.0,0.0));
#132=DIRECTION('',(-1.0,0.0,0.0));
#133=DIRECTION('',(0.0,0.0,-1.0));
#134=AXIS2_PLACEMENT_3D('',#131,#132,#133);
#135=CIRCLE('',#134,5.0);
#136=EDGE_CURVE('',#130,#130,#135,.T.);
#137=ORIENTED_EDGE('',*,*,#136,.T.);
#138=EDGE_LOOP('',(#137));
#139=FACE_OUTER_BOUND('',#138,.T.);
#140=CARTESIAN_POINT('',(14.500000000000002,-6.123234E-016,5.0));
#141=VERTEX_POINT('',#140);
#142=CARTESIAN_POINT('',(14.500000000000002,0.0,0.0));
#143=DIRECTION('',(1.0,0.0,0.0));
#144=DIRECTION('',(0.0,0.0,-1.0));
#145=AXIS2_PLACEMENT_3D('',#142,#143,#144);
#146=CIRCLE('',#145,5.0);
#147=EDGE_CURVE('',#141,#141,#146,.T.);
#148=ORIENTED_EDGE('',*,*,#147,.T.);
#149=EDGE_LOOP('',(#148));
#150=FACE_BOUND('',#149,.T.);
#151=ADVANCED_FACE('',(#139,#150),#128,.F.);
#152=CARTESIAN_POINT('',(6.000000000000001,0.0,0.0));
#153=DIRECTION('',(1.0,0.0,0.0));
#154=DIRECTION('',(0.0,0.0,-1.0));
#155=AXIS2_PLACEMENT_3D('',#152,#153,#154);
#156=CYLINDRICAL_SURFACE('',#155,8.0);
#157=CARTESIAN_POINT('',(0.986301369863013,9.797174E-016,8.0));
#158=VERTEX_POINT('',#157);
#159=CARTESIAN_POINT('',(0.986301369863013,0.0,0.0));
#160=DIRECTION('',(-1.0,0.0,0.0));
#161=DIRECTION('',(0.0,0.0,-1.0));
#162=AXIS2_PLACEMENT_3D('',#159,#160,#161);
#163=CIRCLE('',#162,8.0);
#164=EDGE_CURVE('',#158,#158,#163,.T.);
#165=ORIENTED_EDGE('',*,*,#164,.T.);
#166=EDGE_LOOP('',(#165));
#167=FACE_OUTER_BOUND('',#166,.T.);
#168=CARTESIAN_POINT('',(12.000000000000002,9.797174E-016,8.0));
#169=VERTEX_POINT('',#168);
#170=CARTESIAN_POINT('',(12.000000000000002,0.0,0.0));
#171=DIRECTION('',(1.0,0.0,0.0));
#172=DIRECTION('',(0.0,0.0,-1.0));
#173=AXIS2_PLACEMENT_3D('',#170,#171,#172);
#174=CIRCLE('',#173,8.0);
#175=EDGE_CURVE('',#169,#169,#174,.T.);
#176=ORIENTED_EDGE('',*,*,#175,.T.);
#177=EDGE_LOOP('',(#176));
#178=FACE_BOUND('',#177,.T.);
#179=ADVANCED_FACE('',(#167,#178),#156,.F.);
#180=CARTESIAN_POINT('',(22.75,0.0,0.0));
#181=DIRECTION('',(-1.0,0.0,0.0));
#182=DIRECTION('',(0.0,0.0,-1.0));
#183=AXIS2_PLACEMENT_3D('',#180,#181,#182);
#184=CYLINDRICAL_SURFACE('',#183,7.465000000000001);
#185=CARTESIAN_POINT('',(17.0,-9.141988E-016,7.465000000000001));
#186=VERTEX_POINT('',#185);
#187=CARTESIAN_POINT('',(17.0,0.0,0.0));
#188=DIRECTION('',(1.0,0.0,0.0));
#189=DIRECTION('',(0.0,0.0,-1.0));
#190=AXIS2_PLACEMENT_3D('',#187,#188,#189);
#191=CIRCLE('',#190,7.465000000000001);
#192=EDGE_CURVE('',#186,#186,#191,.T.);
#193=ORIENTED_EDGE('',*,*,#192,.T.);
#194=EDGE_LOOP('',(#193));
#195=FACE_OUTER_BOUND('',#194,.T.);
#196=CARTESIAN_POINT('',(14.500000000000002,-9.141988E-016,7.465000000000001));
#197=VERTEX_POINT('',#196);
#198=CARTESIAN_POINT('',(14.500000000000002,0.0,0.0));
#199=DIRECTION('',(-1.0,0.0,0.0));
#200=DIRECTION('',(0.0,0.0,-1.0));
#201=AXIS2_PLACEMENT_3D('',#198,#199,#200);
#202=CIRCLE('',#201,7.465000000000001);
#203=EDGE_CURVE('',#197,#197,#202,.T.);
#204=ORIENTED_EDGE('',*,*,#203,.T.);
#205=EDGE_LOOP('',(#204));
#206=FACE_BOUND('',#205,.T.);
#207=ADVANCED_FACE('',(#195,#206),#184,.F.);
#208=CARTESIAN_POINT('',(24.000000000000004,0.0,0.0));
#209=DIRECTION('',(1.0,0.0,0.0));
#210=DIRECTION('',(0.0,0.0,1.0));
#211=AXIS2_PLACEMENT_3D('',#208,#209,#210);
#212=CYLINDRICAL_SURFACE('',#211,7.475000000000001);
#213=CARTESIAN_POINT('',(17.0,-9.154235E-016,-7.475000000000001));
#214=VERTEX_POINT('',#213);
#215=CARTESIAN_POINT('',(17.0,0.0,0.0));
#216=DIRECTION('',(1.0,0.0,0.0));
#217=DIRECTION('',(0.0,0.0,1.0));
#218=AXIS2_PLACEMENT_3D('',#215,#216,#217);
#219=CIRCLE('',#218,7.475000000000001);
#220=EDGE_CURVE('',#214,#214,#219,.T.);
#221=ORIENTED_EDGE('',*,*,#220,.F.);
#222=EDGE_LOOP('',(#221));
#223=FACE_OUTER_BOUND('',#222,.T.);
#224=CARTESIAN_POINT('',(31.0,-9.154235E-016,-7.475000000000001));
#225=VERTEX_POINT('',#224);
#226=CARTESIAN_POINT('',(31.0,0.0,0.0));
#227=DIRECTION('',(-1.0,0.0,0.0));
#228=DIRECTION('',(0.0,0.0,1.0));
#229=AXIS2_PLACEMENT_3D('',#226,#227,#228);
#230=CIRCLE('',#229,7.475000000000001);
#231=EDGE_CURVE('',#225,#225,#230,.T.);
#232=ORIENTED_EDGE('',*,*,#231,.F.);
#233=EDGE_LOOP('',(#232));
#234=FACE_BOUND('',#233,.T.);
#235=ADVANCED_FACE('',(#223,#234),#212,.F.);
#236=CARTESIAN_POINT('',(4.0,0.0,0.0));
#237=DIRECTION('',(-1.0,0.0,0.0));
#238=DIRECTION('',(0.0,0.0,-1.0));
#239=AXIS2_PLACEMENT_3D('',#236,#237,#238);
#240=CONICAL_SURFACE('',#239,4.5625,48.75855568547199);
#241=CARTESIAN_POINT('',(0.0,1.117490E-015,9.125));
#242=VERTEX_POINT('',#241);
#243=CARTESIAN_POINT('',(0.0,0.0,0.0));
#244=DIRECTION('',(1.0,0.0,0.0));
#245=DIRECTION('',(0.0,0.0,-1.0));
#246=AXIS2_PLACEMENT_3D('',#243,#244,#245);
#247=CIRCLE('',#246,9.125);
#248=EDGE_CURVE('',#242,#242,#247,.T.);
#249=ORIENTED_EDGE('',*,*,#248,.F.);
#250=EDGE_LOOP('',(#249));
#251=FACE_OUTER_BOUND('',#250,.T.);
#252=ORIENTED_EDGE('',*,*,#164,.F.);
#253=EDGE_LOOP('',(#252));
#254=FACE_BOUND('',#253,.T.);
#255=ADVANCED_FACE('',(#251,#254),#240,.F.);
#256=CARTESIAN_POINT('',(27.899999999999999,0.0,0.0));
#257=DIRECTION('',(-1.0,0.0,0.0));
#258=DIRECTION('',(0.0,0.0,1.0));
#259=AXIS2_PLACEMENT_3D('',#256,#257,#258);
#260=CYLINDRICAL_SURFACE('',#259,12.5);
#261=CARTESIAN_POINT('',(24.800000000000004,1.530808E-015,-12.5));
#262=VERTEX_POINT('',#261);
#263=CARTESIAN_POINT('',(24.800000000000004,0.0,0.0));
#264=DIRECTION('',(-1.0,0.0,0.0));
#265=DIRECTION('',(0.0,0.0,1.0));
#266=AXIS2_PLACEMENT_3D('',#263,#264,#265);
#267=CIRCLE('',#266,12.5);
#268=EDGE_CURVE('',#262,#262,#267,.T.);
#269=ORIENTED_EDGE('',*,*,#268,.F.);
#270=EDGE_LOOP('',(#269));
#271=FACE_OUTER_BOUND('',#270,.T.);
#272=CARTESIAN_POINT('',(31.0,1.530808E-015,-12.5));
#273=VERTEX_POINT('',#272);
#274=CARTESIAN_POINT('',(31.0,0.0,0.0));
#275=DIRECTION('',(1.0,0.0,0.0));
#276=DIRECTION('',(0.0,0.0,1.0));
#277=AXIS2_PLACEMENT_3D('',#274,#275,#276);
#278=CIRCLE('',#277,12.5);
#279=EDGE_CURVE('',#273,#273,#278,.T.);
#280=ORIENTED_EDGE('',*,*,#279,.F.);
#281=EDGE_LOOP('',(#280));
#282=FACE_BOUND('',#281,.T.);
#283=ADVANCED_FACE('',(#271,#282),#260,.T.);
#284=CARTESIAN_POINT('',(24.800000000000004,0.0,0.0));
#285=DIRECTION('',(-1.0,0.0,0.0));
#286=DIRECTION('',(0.0,0.0,1.0));
#287=AXIS2_PLACEMENT_3D('',#284,#285,#286);
#288=PLANE('',#287);
#289=ORIENTED_EDGE('',*,*,#268,.T.);
#290=EDGE_LOOP('',(#289));
#291=FACE_OUTER_BOUND('',#290,.T.);
#292=ORIENTED_EDGE('',*,*,#119,.F.);
#293=EDGE_LOOP('',(#292));
#294=FACE_BOUND('',#293,.T.);
#295=ADVANCED_FACE('',(#291,#294),#288,.T.);
#296=CARTESIAN_POINT('',(17.0,0.0,3.7375));
#297=DIRECTION('',(-1.0,0.0,0.0));
#298=DIRECTION('',(0.0,0.0,1.0));
#299=AXIS2_PLACEMENT_3D('',#296,#297,#298);
#300=PLANE('',#299);
#301=ORIENTED_EDGE('',*,*,#220,.T.);
#302=EDGE_LOOP('',(#301));
#303=FACE_OUTER_BOUND('',#302,.T.);
#304=ORIENTED_EDGE('',*,*,#192,.F.);
#305=EDGE_LOOP('',(#304));
#306=FACE_BOUND('',#305,.T.);
#307=ADVANCED_FACE('',(#303,#306),#300,.F.);
#308=CARTESIAN_POINT('',(14.500000000000002,0.0,0.0));
#309=DIRECTION('',(-1.0,0.0,0.0));
#310=DIRECTION('',(0.0,0.0,1.0));
#311=AXIS2_PLACEMENT_3D('',#308,#309,#310);
#312=PLANE('',#311);
#313=ORIENTED_EDGE('',*,*,#203,.F.);
#314=EDGE_LOOP('',(#313));
#315=FACE_OUTER_BOUND('',#314,.T.);
#316=ORIENTED_EDGE('',*,*,#147,.F.);
#317=EDGE_LOOP('',(#316));
#318=FACE_BOUND('',#317,.T.);
#319=ADVANCED_FACE('',(#315,#318),#312,.F.);
#320=CARTESIAN_POINT('',(12.000000000000002,0.0,0.0));
#321=DIRECTION('',(1.0,0.0,0.0));
#322=DIRECTION('',(0.0,0.0,-1.0));
#323=AXIS2_PLACEMENT_3D('',#320,#321,#322);
#324=PLANE('',#323);
#325=ORIENTED_EDGE('',*,*,#175,.F.);
#326=EDGE_LOOP('',(#325));
#327=FACE_OUTER_BOUND('',#326,.T.);
#328=ORIENTED_EDGE('',*,*,#136,.F.);
#329=EDGE_LOOP('',(#328));
#330=FACE_BOUND('',#329,.T.);
#331=ADVANCED_FACE('',(#327,#330),#324,.F.);
#332=CARTESIAN_POINT('',(31.0,0.0,0.0));
#333=DIRECTION('',(1.0,0.0,0.0));
#334=DIRECTION('',(0.0,0.0,-1.0));
#335=AXIS2_PLACEMENT_3D('',#332,#333,#334);
#336=PLANE('',#335);
#337=ORIENTED_EDGE('',*,*,#279,.T.);
#338=EDGE_LOOP('',(#337));
#339=FACE_OUTER_BOUND('',#338,.T.);
#340=ORIENTED_EDGE('',*,*,#231,.T.);
#341=EDGE_LOOP('',(#340));
#342=FACE_BOUND('',#341,.T.);
#343=ADVANCED_FACE('',(#339,#342),#336,.T.);
#344=CARTESIAN_POINT('',(7.75,2.220446E-016,0.0));
#345=DIRECTION('',(1.0,0.0,0.0));
#346=DIRECTION('',(0.0,0.0,-1.0));
#347=AXIS2_PLACEMENT_3D('',#344,#345,#346);
#348=PLANE('',#347);
#349=CARTESIAN_POINT('',(7.75,-5.591883092,-13.5));
#350=VERTEX_POINT('',#349);
#351=CARTESIAN_POINT('',(7.75,5.591883092,-13.5));
#352=VERTEX_POINT('',#351);
#353=CARTESIAN_POINT('',(7.75,-5.591883092,-13.5));
#354=DIRECTION('',(0.0,1.0,0.0));
#355=VECTOR('',#354,11.183766184);
#356=LINE('',#353,#355);
#357=EDGE_CURVE('',#350,#352,#356,.T.);
#358=ORIENTED_EDGE('',*,*,#357,.F.);
#359=CARTESIAN_POINT('',(7.75,-13.5,-5.591883092));
#360=VERTEX_POINT('',#359);
#361=CARTESIAN_POINT('',(7.75,-13.5,-5.591883092));
#362=DIRECTION('',(0.0,0.707106781186547,-0.707106781186548));
#363=VECTOR('',#362,11.183766184125586);
#364=LINE('',#361,#363);
#365=EDGE_CURVE('',#360,#350,#364,.T.);
#366=ORIENTED_EDGE('',*,*,#365,.F.);
#367=CARTESIAN_POINT('',(7.75,-13.5,5.591883092));
#368=VERTEX_POINT('',#367);
#369=CARTESIAN_POINT('',(7.75,-13.5,5.591883092));
#370=DIRECTION('',(0.0,0.0,-1.0));
#371=VECTOR('',#370,11.183766184);
#372=LINE('',#369,#371);
#373=EDGE_CURVE('',#368,#360,#372,.T.);
#374=ORIENTED_EDGE('',*,*,#373,.F.);
#375=CARTESIAN_POINT('',(7.75,-5.591883092,13.5));
#376=VERTEX_POINT('',#375);
#377=CARTESIAN_POINT('',(7.75,-5.591883092,13.5));
#378=DIRECTION('',(0.0,-0.707106781186548,-0.707106781186547));
#379=VECTOR('',#378,11.183766184125586);
#380=LINE('',#377,#379);
#381=EDGE_CURVE('',#376,#368,#380,.T.);
#382=ORIENTED_EDGE('',*,*,#381,.F.);
#383=CARTESIAN_POINT('',(7.75,5.591883092,13.5));
#384=VERTEX_POINT('',#383);
#385=CARTESIAN_POINT('',(7.75,5.591883092,13.5));
#386=DIRECTION('',(0.0,-1.0,0.0));
#387=VECTOR('',#386,11.183766184);
#388=LINE('',#385,#387);
#389=EDGE_CURVE('',#384,#376,#388,.T.);
#390=ORIENTED_EDGE('',*,*,#389,.F.);
#391=CARTESIAN_POINT('',(7.75,13.5,5.591883092));
#392=VERTEX_POINT('',#391);
#393=CARTESIAN_POINT('',(7.75,13.5,5.591883092));
#394=DIRECTION('',(0.0,-0.707106781186547,0.707106781186548));
#395=VECTOR('',#394,11.183766184125586);
#396=LINE('',#393,#395);
#397=EDGE_CURVE('',#392,#384,#396,.T.);
#398=ORIENTED_EDGE('',*,*,#397,.F.);
#399=CARTESIAN_POINT('',(7.75,13.5,-5.591883092));
#400=VERTEX_POINT('',#399);
#401=CARTESIAN_POINT('',(7.75,13.5,-5.591883092));
#402=DIRECTION('',(0.0,0.0,1.0));
#403=VECTOR('',#402,11.183766184);
#404=LINE('',#401,#403);
#405=EDGE_CURVE('',#400,#392,#404,.T.);
#406=ORIENTED_EDGE('',*,*,#405,.F.);
#407=CARTESIAN_POINT('',(7.75,5.591883092,-13.5));
#408=DIRECTION('',(0.0,0.707106781186548,0.707106781186547));
#409=VECTOR('',#408,11.183766184125586);
#410=LINE('',#407,#409);
#411=EDGE_CURVE('',#352,#400,#410,.T.);
#412=ORIENTED_EDGE('',*,*,#411,.F.);
#413=EDGE_LOOP('',(#358,#366,#374,#382,#390,#398,#406,#412));
#414=FACE_OUTER_BOUND('',#413,.T.);
#415=ORIENTED_EDGE('',*,*,#80,.T.);
#416=EDGE_LOOP('',(#415));
#417=FACE_BOUND('',#416,.T.);
#418=ADVANCED_FACE('',(#414,#417),#348,.F.);
#419=CARTESIAN_POINT('',(7.75,-9.545941546000002,-9.545941546000002));
#420=DIRECTION('',(0.0,-0.707106781186548,-0.707106781186548));
#421=DIRECTION('',(-1.0,0.0,0.0));
#422=AXIS2_PLACEMENT_3D('',#419,#420,#421);
#423=PLANE('',#422);
#424=CARTESIAN_POINT('',(23.25,-5.591883092,-13.5));
#425=VERTEX_POINT('',#424);
#426=CARTESIAN_POINT('',(23.25,-13.5,-5.591883092));
#427=VERTEX_POINT('',#426);
#428=CARTESIAN_POINT('',(23.25,-5.591883092,-13.5));
#429=DIRECTION('',(0.0,-0.707106781186548,0.707106781186548));
#430=VECTOR('',#429,11.183766184125584);
#431=LINE('',#428,#430);
#432=EDGE_CURVE('',#425,#427,#431,.T.);
#433=ORIENTED_EDGE('',*,*,#432,.T.);
#434=CARTESIAN_POINT('',(7.75,-13.5,-5.591883092));
#435=DIRECTION('',(1.0,0.0,0.0));
#436=VECTOR('',#435,15.500000000000004);
#437=LINE('',#434,#436);
#438=EDGE_CURVE('',#360,#427,#437,.T.);
#439=ORIENTED_EDGE('',*,*,#438,.F.);
#440=ORIENTED_EDGE('',*,*,#365,.T.);
#441=CARTESIAN_POINT('',(7.75,-5.591883092,-13.5));
#442=DIRECTION('',(1.0,0.0,0.0));
#443=VECTOR('',#442,15.500000000000004);
#444=LINE('',#441,#443);
#445=EDGE_CURVE('',#350,#425,#444,.T.);
#446=ORIENTED_EDGE('',*,*,#445,.T.);
#447=EDGE_LOOP('',(#433,#439,#440,#446));
#448=FACE_OUTER_BOUND('',#447,.T.);
#449=ADVANCED_FACE('',(#448),#423,.T.);
#450=CARTESIAN_POINT('',(7.75,-13.5,0.0));
#451=DIRECTION('',(0.0,-1.0,0.0));
#452=DIRECTION('',(0.0,0.0,-1.0));
#453=AXIS2_PLACEMENT_3D('',#450,#451,#452);
#454=PLANE('',#453);
#455=CARTESIAN_POINT('',(23.25,-13.5,5.591883092));
#456=VERTEX_POINT('',#455);
#457=CARTESIAN_POINT('',(23.25,-13.5,-5.591883092));
#458=DIRECTION('',(0.0,0.0,1.0));
#459=VECTOR('',#458,11.183766184);
#460=LINE('',#457,#459);
#461=EDGE_CURVE('',#427,#456,#460,.T.);
#462=ORIENTED_EDGE('',*,*,#461,.T.);
#463=CARTESIAN_POINT('',(7.75,-13.5,5.591883092));
#464=DIRECTION('',(1.0,0.0,0.0));
#465=VECTOR('',#464,15.500000000000004);
#466=LINE('',#463,#465);
#467=EDGE_CURVE('',#368,#456,#466,.T.);
#468=ORIENTED_EDGE('',*,*,#467,.F.);
#469=ORIENTED_EDGE('',*,*,#373,.T.);
#470=ORIENTED_EDGE('',*,*,#438,.T.);
#471=EDGE_LOOP('',(#462,#468,#469,#470));
#472=FACE_OUTER_BOUND('',#471,.T.);
#473=ADVANCED_FACE('',(#472),#454,.T.);
#474=CARTESIAN_POINT('',(7.75,-9.545941546000002,9.545941546000002));
#475=DIRECTION('',(0.0,-0.707106781186548,0.707106781186548));
#476=DIRECTION('',(1.0,0.0,0.0));
#477=AXIS2_PLACEMENT_3D('',#474,#475,#476);
#478=PLANE('',#477);
#479=CARTESIAN_POINT('',(23.25,-5.591883092,13.5));
#480=VERTEX_POINT('',#479);
#481=CARTESIAN_POINT('',(23.25,-13.5,5.591883092));
#482=DIRECTION('',(0.0,0.707106781186548,0.707106781186548));
#483=VECTOR('',#482,11.183766184125584);
#484=LINE('',#481,#483);
#485=EDGE_CURVE('',#456,#480,#484,.T.);
#486=ORIENTED_EDGE('',*,*,#485,.T.);
#487=CARTESIAN_POINT('',(7.75,-5.591883092,13.5));
#488=DIRECTION('',(1.0,0.0,0.0));
#489=VECTOR('',#488,15.500000000000004);
#490=LINE('',#487,#489);
#491=EDGE_CURVE('',#376,#480,#490,.T.);
#492=ORIENTED_EDGE('',*,*,#491,.F.);
#493=ORIENTED_EDGE('',*,*,#381,.T.);
#494=ORIENTED_EDGE('',*,*,#467,.T.);
#495=EDGE_LOOP('',(#486,#492,#493,#494));
#496=FACE_OUTER_BOUND('',#495,.T.);
#497=ADVANCED_FACE('',(#496),#478,.T.);
#498=CARTESIAN_POINT('',(7.75,0.0,13.5));
#499=DIRECTION('',(0.0,0.0,1.0));
#500=DIRECTION('',(1.0,0.0,0.0));
#501=AXIS2_PLACEMENT_3D('',#498,#499,#500);
#502=PLANE('',#501);
#503=CARTESIAN_POINT('',(23.25,5.591883092,13.5));
#504=VERTEX_POINT('',#503);
#505=CARTESIAN_POINT('',(23.25,-5.591883092,13.5));
#506=DIRECTION('',(0.0,1.0,0.0));
#507=VECTOR('',#506,11.183766184);
#508=LINE('',#505,#507);
#509=EDGE_CURVE('',#480,#504,#508,.T.);
#510=ORIENTED_EDGE('',*,*,#509,.T.);
#511=CARTESIAN_POINT('',(7.75,5.591883092,13.5));
#512=DIRECTION('',(1.0,0.0,0.0));
#513=VECTOR('',#512,15.500000000000004);
#514=LINE('',#511,#513);
#515=EDGE_CURVE('',#384,#504,#514,.T.);
#516=ORIENTED_EDGE('',*,*,#515,.F.);
#517=ORIENTED_EDGE('',*,*,#389,.T.);
#518=ORIENTED_EDGE('',*,*,#491,.T.);
#519=EDGE_LOOP('',(#510,#516,#517,#518));
#520=FACE_OUTER_BOUND('',#519,.T.);
#521=ADVANCED_FACE('',(#520),#502,.T.);
#522=CARTESIAN_POINT('',(7.75,9.545941546000002,9.545941546000002));
#523=DIRECTION('',(0.0,0.707106781186548,0.707106781186548));
#524=DIRECTION('',(1.0,0.0,0.0));
#525=AXIS2_PLACEMENT_3D('',#522,#523,#524);
#526=PLANE('',#525);
#527=CARTESIAN_POINT('',(23.25,13.5,5.591883092));
#528=VERTEX_POINT('',#527);
#529=CARTESIAN_POINT('',(23.25,5.591883092,13.5));
#530=DIRECTION('',(0.0,0.707106781186548,-0.707106781186548));
#531=VECTOR('',#530,11.183766184125584);
#532=LINE('',#529,#531);
#533=EDGE_CURVE('',#504,#528,#532,.T.);
#534=ORIENTED_EDGE('',*,*,#533,.T.);
#535=CARTESIAN_POINT('',(7.75,13.5,5.591883092));
#536=DIRECTION('',(1.0,0.0,0.0));
#537=VECTOR('',#536,15.500000000000004);
#538=LINE('',#535,#537);
#539=EDGE_CURVE('',#392,#528,#538,.T.);
#540=ORIENTED_EDGE('',*,*,#539,.F.);
#541=ORIENTED_EDGE('',*,*,#397,.T.);
#542=ORIENTED_EDGE('',*,*,#515,.T.);
#543=EDGE_LOOP('',(#534,#540,#541,#542));
#544=FACE_OUTER_BOUND('',#543,.T.);
#545=ADVANCED_FACE('',(#544),#526,.T.);
#546=CARTESIAN_POINT('',(7.75,13.5,0.0));
#547=DIRECTION('',(0.0,1.0,0.0));
#548=DIRECTION('',(0.0,0.0,1.0));
#549=AXIS2_PLACEMENT_3D('',#546,#547,#548);
#550=PLANE('',#549);
#551=CARTESIAN_POINT('',(23.25,13.5,-5.591883092));
#552=VERTEX_POINT('',#551);
#553=CARTESIAN_POINT('',(23.25,13.5,5.591883092));
#554=DIRECTION('',(0.0,0.0,-1.0));
#555=VECTOR('',#554,11.183766184);
#556=LINE('',#553,#555);
#557=EDGE_CURVE('',#528,#552,#556,.T.);
#558=ORIENTED_EDGE('',*,*,#557,.T.);
#559=CARTESIAN_POINT('',(7.75,13.5,-5.591883092));
#560=DIRECTION('',(1.0,0.0,0.0));
#561=VECTOR('',#560,15.500000000000004);
#562=LINE('',#559,#561);
#563=EDGE_CURVE('',#400,#552,#562,.T.);
#564=ORIENTED_EDGE('',*,*,#563,.F.);
#565=ORIENTED_EDGE('',*,*,#405,.T.);
#566=ORIENTED_EDGE('',*,*,#539,.T.);
#567=EDGE_LOOP('',(#558,#564,#565,#566));
#568=FACE_OUTER_BOUND('',#567,.T.);
#569=ADVANCED_FACE('',(#568),#550,.T.);
#570=CARTESIAN_POINT('',(7.75,9.545941546000002,-9.545941546000002));
#571=DIRECTION('',(0.0,0.707106781186548,-0.707106781186548));
#572=DIRECTION('',(-1.0,0.0,0.0));
#573=AXIS2_PLACEMENT_3D('',#570,#571,#572);
#574=PLANE('',#573);
#575=CARTESIAN_POINT('',(23.25,5.591883092,-13.5));
#576=VERTEX_POINT('',#575);
#577=CARTESIAN_POINT('',(23.25,13.5,-5.591883092));
#578=DIRECTION('',(0.0,-0.707106781186548,-0.707106781186548));
#579=VECTOR('',#578,11.183766184125584);
#580=LINE('',#577,#579);
#581=EDGE_CURVE('',#552,#576,#580,.T.);
#582=ORIENTED_EDGE('',*,*,#581,.T.);
#583=CARTESIAN_POINT('',(7.75,5.591883092,-13.5));
#584=DIRECTION('',(1.0,0.0,0.0));
#585=VECTOR('',#584,15.500000000000004);
#586=LINE('',#583,#585);
#587=EDGE_CURVE('',#352,#576,#586,.T.);
#588=ORIENTED_EDGE('',*,*,#587,.F.);
#589=ORIENTED_EDGE('',*,*,#411,.T.);
#590=ORIENTED_EDGE('',*,*,#563,.T.);
#591=EDGE_LOOP('',(#582,#588,#589,#590));
#592=FACE_OUTER_BOUND('',#591,.T.);
#593=ADVANCED_FACE('',(#592),#574,.T.);
#594=CARTESIAN_POINT('',(7.75,0.0,-13.5));
#595=DIRECTION('',(0.0,0.0,-1.0));
#596=DIRECTION('',(-1.0,0.0,0.0));
#597=AXIS2_PLACEMENT_3D('',#594,#595,#596);
#598=PLANE('',#597);
#599=CARTESIAN_POINT('',(23.25,5.591883092,-13.5));
#600=DIRECTION('',(0.0,-1.0,0.0));
#601=VECTOR('',#600,11.183766184);
#602=LINE('',#599,#601);
#603=EDGE_CURVE('',#576,#425,#602,.T.);
#604=ORIENTED_EDGE('',*,*,#603,.T.);
#605=ORIENTED_EDGE('',*,*,#445,.F.);
#606=ORIENTED_EDGE('',*,*,#357,.T.);
#607=ORIENTED_EDGE('',*,*,#587,.T.);
#608=EDGE_LOOP('',(#604,#605,#606,#607));
#609=FACE_OUTER_BOUND('',#608,.T.);
#610=ADVANCED_FACE('',(#609),#598,.T.);
#611=CARTESIAN_POINT('',(23.25,-4.440892E-016,2.220446E-016));
#612=DIRECTION('',(1.0,0.0,0.0));
#613=DIRECTION('',(0.0,0.0,-1.0));
#614=AXIS2_PLACEMENT_3D('',#611,#612,#613);
#615=PLANE('',#614);
#616=ORIENTED_EDGE('',*,*,#432,.F.);
#617=ORIENTED_EDGE('',*,*,#603,.F.);
#618=ORIENTED_EDGE('',*,*,#581,.F.);
#619=ORIENTED_EDGE('',*,*,#557,.F.);
#620=ORIENTED_EDGE('',*,*,#533,.F.);
#621=ORIENTED_EDGE('',*,*,#509,.F.);
#622=ORIENTED_EDGE('',*,*,#485,.F.);
#623=ORIENTED_EDGE('',*,*,#461,.F.);
#624=EDGE_LOOP('',(#616,#617,#618,#619,#620,#621,#622,#623));
#625=FACE_OUTER_BOUND('',#624,.T.);
#626=ORIENTED_EDGE('',*,*,#108,.T.);
#627=EDGE_LOOP('',(#626));
#628=FACE_BOUND('',#627,.T.);
#629=ADVANCED_FACE('',(#625,#628),#615,.T.);
#630=CARTESIAN_POINT('',(0.0,0.0,0.0));
#631=DIRECTION('',(-1.0,0.0,0.0));
#632=DIRECTION('',(0.0,0.0,1.0));
#633=AXIS2_PLACEMENT_3D('',#630,#631,#632);
#634=PLANE('',#633);
#635=ORIENTED_EDGE('',*,*,#91,.T.);
#636=EDGE_LOOP('',(#635));
#637=FACE_OUTER_BOUND('',#636,.T.);
#638=ORIENTED_EDGE('',*,*,#248,.T.);
#639=EDGE_LOOP('',(#638));
#640=FACE_BOUND('',#639,.T.);
#641=ADVANCED_FACE('',(#637,#640),#634,.T.);
#642=CLOSED_SHELL('',(#95,#123,#151,#179,#207,#235,#255,#283,#295,#307,#319,#331,#343,#418,#449,#473,#497,#521,#545,#569,#593,#610,#629,#641));
#643=MANIFOLD_SOLID_BREP('70836',#642);
#644=COLOUR_RGB('',0.250980406999588,0.290196090936661,0.329411774873734);
#645=FILL_AREA_STYLE_COLOUR('',#644);
#646=FILL_AREA_STYLE('',(#645));
#647=SURFACE_STYLE_FILL_AREA(#646);
#648=SURFACE_SIDE_STYLE('',(#647));
#649=SURFACE_STYLE_USAGE(.BOTH.,#648);
#650=PRESENTATION_STYLE_ASSIGNMENT((#649));
#651=STYLED_ITEM('',(#650,#677),#643);
#652=COLOUR_RGB('',1.0,1.0,0.501960813999176);
#653=FILL_AREA_STYLE_COLOUR('',#652);
#654=FILL_AREA_STYLE('',(#653));
#655=SURFACE_STYLE_FILL_AREA(#654);
#656=SURFACE_SIDE_STYLE('',(#655));
#657=SURFACE_STYLE_USAGE(.BOTH.,#656);
#658=PRESENTATION_STYLE_ASSIGNMENT((#657));
#659=OVER_RIDING_STYLED_ITEM('',(#658),#235,#651);
#660=COLOUR_RGB('',0.831372559070587,0.850980401039124,0.858823537826538);
#661=FILL_AREA_STYLE_COLOUR('',#660);
#662=FILL_AREA_STYLE('',(#661));
#663=SURFACE_STYLE_FILL_AREA(#662);
#664=SURFACE_SIDE_STYLE('',(#663));
#665=SURFACE_STYLE_USAGE(.BOTH.,#664);
#666=PRESENTATION_STYLE_ASSIGNMENT((#665));
#667=OVER_RIDING_STYLED_ITEM('',(#666),#283,#651);
#668=OVER_RIDING_STYLED_ITEM('',(#666),#295,#651);
#669=OVER_RIDING_STYLED_ITEM('',(#658),#307,#651);
#670=MECHANICAL_DESIGN_GEOMETRIC_PRESENTATION_REPRESENTATION('',(#651,#659,#667,#668,#669),#67);
#671=COLOUR_RGB('Standard',0.752941012382507,0.752941012382507,0.752941012382507);
#672=FILL_AREA_STYLE_COLOUR('Standard',#671);
#673=FILL_AREA_STYLE('Standard',(#672));
#674=SURFACE_STYLE_FILL_AREA(#673);
#675=SURFACE_SIDE_STYLE('Standard',(#674));
#676=SURFACE_STYLE_USAGE(.BOTH.,#675);
#677=PRESENTATION_STYLE_ASSIGNMENT((#676));
#678=ADVANCED_BREP_SHAPE_REPRESENTATION('ABSR',(#643),#36);
#679=SHAPE_REPRESENTATION_RELATIONSHIP('SRR','None',#678,#41);
ENDSEC;
END-ISO-10303-21;
