ISO-10303-21;
HEADER;
/* Generated by software containing ST-Developer
 * from STEP Tools, Inc. (www.steptools.com) 
 */

FILE_DESCRIPTION(
/* description */ (''),
/* implementation_level */ '2;1');

FILE_NAME(
/* name */ 'J:\\003 3D Zeichnungen_step\\Serie 02\\02sftf03mxn.stp',
/* time_stamp */ '2017-04-03T14:32:47+02:00',
/* author */ ('IA176480'),
/* organization */ (''),
/* preprocessor_version */ 'ST-DEVELOPER v16.1',
/* originating_system */ 'Autodesk Inventor 2016',
/* authorisation */ '');

FILE_SCHEMA (('AUTOMOTIVE_DESIGN { 1 0 10303 214 3 1 1 }'));
ENDSEC;

DATA;
#10=MECHANICAL_DESIGN_GEOMETRIC_PRESENTATION_REPRESENTATION('',(#13),#503);
#11=SHAPE_REPRESENTATION_RELATIONSHIP('SRR','None',#512,#12);
#12=ADVANCED_BREP_SHAPE_REPRESENTATION('',(#14),#502);
#13=STYLED_ITEM('',(#521),#14);
#14=MANIFOLD_SOLID_BREP('Solid1',#279);
#15=TOROIDAL_SURFACE('',#292,1.85,0.1);
#16=TOROIDAL_SURFACE('',#299,1.875,0.1);
#17=TOROIDAL_SURFACE('',#305,1.4,0.2);
#18=TOROIDAL_SURFACE('',#311,1.55,0.3);
#19=TOROIDAL_SURFACE('',#315,1.95,0.2);
#20=TOROIDAL_SURFACE('',#316,1.05,0.2);
#21=PLANE('',#286);
#22=PLANE('',#290);
#23=PLANE('',#297);
#24=PLANE('',#309);
#25=PLANE('',#321);
#26=CYLINDRICAL_SURFACE('',#284,2.5);
#27=CYLINDRICAL_SURFACE('',#295,1.75);
#28=CYLINDRICAL_SURFACE('',#302,1.975);
#29=CYLINDRICAL_SURFACE('',#308,1.6);
#30=CYLINDRICAL_SURFACE('',#313,1.25);
#31=CYLINDRICAL_SURFACE('',#319,1.25);
#32=CYLINDRICAL_SURFACE('',#325,1.);
#33=CYLINDRICAL_SURFACE('',#328,0.75);
#34=FACE_BOUND('',#83,.T.);
#35=FACE_BOUND('',#85,.T.);
#36=FACE_BOUND('',#87,.T.);
#37=FACE_BOUND('',#89,.T.);
#38=FACE_BOUND('',#91,.T.);
#39=FACE_BOUND('',#93,.T.);
#40=FACE_BOUND('',#95,.T.);
#41=FACE_BOUND('',#97,.T.);
#42=FACE_BOUND('',#99,.T.);
#43=FACE_BOUND('',#101,.T.);
#44=FACE_BOUND('',#103,.T.);
#45=FACE_BOUND('',#105,.T.);
#46=FACE_BOUND('',#107,.T.);
#47=FACE_BOUND('',#109,.T.);
#48=FACE_BOUND('',#111,.T.);
#49=FACE_BOUND('',#113,.T.);
#50=FACE_BOUND('',#115,.T.);
#51=FACE_BOUND('',#117,.T.);
#52=FACE_BOUND('',#119,.T.);
#53=FACE_BOUND('',#121,.T.);
#54=FACE_BOUND('',#123,.T.);
#55=FACE_BOUND('',#125,.T.);
#56=FACE_BOUND('',#127,.T.);
#57=FACE_BOUND('',#129,.T.);
#58=FACE_OUTER_BOUND('',#82,.T.);
#59=FACE_OUTER_BOUND('',#84,.T.);
#60=FACE_OUTER_BOUND('',#86,.T.);
#61=FACE_OUTER_BOUND('',#88,.T.);
#62=FACE_OUTER_BOUND('',#90,.T.);
#63=FACE_OUTER_BOUND('',#92,.T.);
#64=FACE_OUTER_BOUND('',#94,.T.);
#65=FACE_OUTER_BOUND('',#96,.T.);
#66=FACE_OUTER_BOUND('',#98,.T.);
#67=FACE_OUTER_BOUND('',#100,.T.);
#68=FACE_OUTER_BOUND('',#102,.T.);
#69=FACE_OUTER_BOUND('',#104,.T.);
#70=FACE_OUTER_BOUND('',#106,.T.);
#71=FACE_OUTER_BOUND('',#108,.T.);
#72=FACE_OUTER_BOUND('',#110,.T.);
#73=FACE_OUTER_BOUND('',#112,.T.);
#74=FACE_OUTER_BOUND('',#114,.T.);
#75=FACE_OUTER_BOUND('',#116,.T.);
#76=FACE_OUTER_BOUND('',#118,.T.);
#77=FACE_OUTER_BOUND('',#120,.T.);
#78=FACE_OUTER_BOUND('',#122,.T.);
#79=FACE_OUTER_BOUND('',#124,.T.);
#80=FACE_OUTER_BOUND('',#126,.T.);
#81=FACE_OUTER_BOUND('',#128,.T.);
#82=EDGE_LOOP('',(#202));
#83=EDGE_LOOP('',(#203));
#84=EDGE_LOOP('',(#204));
#85=EDGE_LOOP('',(#205));
#86=EDGE_LOOP('',(#206));
#87=EDGE_LOOP('',(#207));
#88=EDGE_LOOP('',(#208));
#89=EDGE_LOOP('',(#209));
#90=EDGE_LOOP('',(#210));
#91=EDGE_LOOP('',(#211));
#92=EDGE_LOOP('',(#212));
#93=EDGE_LOOP('',(#213));
#94=EDGE_LOOP('',(#214));
#95=EDGE_LOOP('',(#215));
#96=EDGE_LOOP('',(#216));
#97=EDGE_LOOP('',(#217));
#98=EDGE_LOOP('',(#218));
#99=EDGE_LOOP('',(#219));
#100=EDGE_LOOP('',(#220));
#101=EDGE_LOOP('',(#221));
#102=EDGE_LOOP('',(#222));
#103=EDGE_LOOP('',(#223));
#104=EDGE_LOOP('',(#224));
#105=EDGE_LOOP('',(#225));
#106=EDGE_LOOP('',(#226));
#107=EDGE_LOOP('',(#227));
#108=EDGE_LOOP('',(#228));
#109=EDGE_LOOP('',(#229));
#110=EDGE_LOOP('',(#230));
#111=EDGE_LOOP('',(#231));
#112=EDGE_LOOP('',(#232));
#113=EDGE_LOOP('',(#233));
#114=EDGE_LOOP('',(#234));
#115=EDGE_LOOP('',(#235));
#116=EDGE_LOOP('',(#236));
#117=EDGE_LOOP('',(#237));
#118=EDGE_LOOP('',(#238));
#119=EDGE_LOOP('',(#239));
#120=EDGE_LOOP('',(#240));
#121=EDGE_LOOP('',(#241));
#122=EDGE_LOOP('',(#242));
#123=EDGE_LOOP('',(#243));
#124=EDGE_LOOP('',(#244));
#125=EDGE_LOOP('',(#245));
#126=EDGE_LOOP('',(#246));
#127=EDGE_LOOP('',(#247));
#128=EDGE_LOOP('',(#248));
#129=EDGE_LOOP('',(#249));
#130=CIRCLE('',#282,2.5);
#131=CIRCLE('',#283,2.4);
#132=CIRCLE('',#285,2.5);
#133=CIRCLE('',#287,1.95);
#134=CIRCLE('',#289,2.4);
#135=CIRCLE('',#291,1.55);
#136=CIRCLE('',#293,1.75);
#137=CIRCLE('',#294,1.85);
#138=CIRCLE('',#296,1.75);
#139=CIRCLE('',#298,1.975);
#140=CIRCLE('',#300,1.975);
#141=CIRCLE('',#301,1.96563077870367);
#142=CIRCLE('',#304,1.6);
#143=CIRCLE('',#306,1.6);
#144=CIRCLE('',#307,1.4);
#145=CIRCLE('',#310,0.75);
#146=CIRCLE('',#312,1.25);
#147=CIRCLE('',#314,1.25);
#148=CIRCLE('',#317,1.05);
#149=CIRCLE('',#318,1.25);
#150=CIRCLE('',#320,1.25);
#151=CIRCLE('',#322,0.75);
#152=CIRCLE('',#324,1.);
#153=CIRCLE('',#326,1.);
#154=VERTEX_POINT('',#429);
#155=VERTEX_POINT('',#431);
#156=VERTEX_POINT('',#434);
#157=VERTEX_POINT('',#437);
#158=VERTEX_POINT('',#440);
#159=VERTEX_POINT('',#443);
#160=VERTEX_POINT('',#446);
#161=VERTEX_POINT('',#448);
#162=VERTEX_POINT('',#451);
#163=VERTEX_POINT('',#454);
#164=VERTEX_POINT('',#457);
#165=VERTEX_POINT('',#459);
#166=VERTEX_POINT('',#463);
#167=VERTEX_POINT('',#466);
#168=VERTEX_POINT('',#468);
#169=VERTEX_POINT('',#472);
#170=VERTEX_POINT('',#475);
#171=VERTEX_POINT('',#478);
#172=VERTEX_POINT('',#482);
#173=VERTEX_POINT('',#484);
#174=VERTEX_POINT('',#487);
#175=VERTEX_POINT('',#490);
#176=VERTEX_POINT('',#493);
#177=VERTEX_POINT('',#496);
#178=EDGE_CURVE('',#154,#154,#130,.T.);
#179=EDGE_CURVE('',#155,#155,#131,.T.);
#180=EDGE_CURVE('',#156,#156,#132,.T.);
#181=EDGE_CURVE('',#157,#157,#133,.T.);
#182=EDGE_CURVE('',#158,#158,#134,.T.);
#183=EDGE_CURVE('',#159,#159,#135,.T.);
#184=EDGE_CURVE('',#160,#160,#136,.T.);
#185=EDGE_CURVE('',#161,#161,#137,.T.);
#186=EDGE_CURVE('',#162,#162,#138,.T.);
#187=EDGE_CURVE('',#163,#163,#139,.T.);
#188=EDGE_CURVE('',#164,#164,#140,.T.);
#189=EDGE_CURVE('',#165,#165,#141,.T.);
#190=EDGE_CURVE('',#166,#166,#142,.T.);
#191=EDGE_CURVE('',#167,#167,#143,.T.);
#192=EDGE_CURVE('',#168,#168,#144,.T.);
#193=EDGE_CURVE('',#169,#169,#145,.T.);
#194=EDGE_CURVE('',#170,#170,#146,.T.);
#195=EDGE_CURVE('',#171,#171,#147,.T.);
#196=EDGE_CURVE('',#172,#172,#148,.T.);
#197=EDGE_CURVE('',#173,#173,#149,.T.);
#198=EDGE_CURVE('',#174,#174,#150,.T.);
#199=EDGE_CURVE('',#175,#175,#151,.T.);
#200=EDGE_CURVE('',#176,#176,#152,.T.);
#201=EDGE_CURVE('',#177,#177,#153,.T.);
#202=ORIENTED_EDGE('',*,*,#178,.T.);
#203=ORIENTED_EDGE('',*,*,#179,.T.);
#204=ORIENTED_EDGE('',*,*,#180,.F.);
#205=ORIENTED_EDGE('',*,*,#178,.F.);
#206=ORIENTED_EDGE('',*,*,#179,.F.);
#207=ORIENTED_EDGE('',*,*,#181,.F.);
#208=ORIENTED_EDGE('',*,*,#182,.T.);
#209=ORIENTED_EDGE('',*,*,#180,.T.);
#210=ORIENTED_EDGE('',*,*,#182,.F.);
#211=ORIENTED_EDGE('',*,*,#183,.F.);
#212=ORIENTED_EDGE('',*,*,#184,.T.);
#213=ORIENTED_EDGE('',*,*,#185,.T.);
#214=ORIENTED_EDGE('',*,*,#186,.F.);
#215=ORIENTED_EDGE('',*,*,#184,.F.);
#216=ORIENTED_EDGE('',*,*,#187,.F.);
#217=ORIENTED_EDGE('',*,*,#185,.F.);
#218=ORIENTED_EDGE('',*,*,#188,.T.);
#219=ORIENTED_EDGE('',*,*,#189,.T.);
#220=ORIENTED_EDGE('',*,*,#187,.T.);
#221=ORIENTED_EDGE('',*,*,#188,.F.);
#222=ORIENTED_EDGE('',*,*,#190,.F.);
#223=ORIENTED_EDGE('',*,*,#189,.F.);
#224=ORIENTED_EDGE('',*,*,#191,.T.);
#225=ORIENTED_EDGE('',*,*,#192,.T.);
#226=ORIENTED_EDGE('',*,*,#190,.T.);
#227=ORIENTED_EDGE('',*,*,#191,.F.);
#228=ORIENTED_EDGE('',*,*,#192,.F.);
#229=ORIENTED_EDGE('',*,*,#193,.F.);
#230=ORIENTED_EDGE('',*,*,#194,.T.);
#231=ORIENTED_EDGE('',*,*,#183,.T.);
#232=ORIENTED_EDGE('',*,*,#195,.T.);
#233=ORIENTED_EDGE('',*,*,#194,.F.);
#234=ORIENTED_EDGE('',*,*,#181,.T.);
#235=ORIENTED_EDGE('',*,*,#186,.T.);
#236=ORIENTED_EDGE('',*,*,#196,.T.);
#237=ORIENTED_EDGE('',*,*,#197,.T.);
#238=ORIENTED_EDGE('',*,*,#198,.F.);
#239=ORIENTED_EDGE('',*,*,#197,.F.);
#240=ORIENTED_EDGE('',*,*,#196,.F.);
#241=ORIENTED_EDGE('',*,*,#199,.T.);
#242=ORIENTED_EDGE('',*,*,#198,.T.);
#243=ORIENTED_EDGE('',*,*,#200,.F.);
#244=ORIENTED_EDGE('',*,*,#200,.T.);
#245=ORIENTED_EDGE('',*,*,#201,.F.);
#246=ORIENTED_EDGE('',*,*,#201,.T.);
#247=ORIENTED_EDGE('',*,*,#195,.F.);
#248=ORIENTED_EDGE('',*,*,#193,.T.);
#249=ORIENTED_EDGE('',*,*,#199,.F.);
#250=CONICAL_SURFACE('',#281,2.45,44.9999999999997);
#251=CONICAL_SURFACE('',#288,2.45,45.);
#252=CONICAL_SURFACE('',#303,1.7875,24.9999999999999);
#253=CONICAL_SURFACE('',#323,1.125,45.);
#254=CONICAL_SURFACE('',#327,1.125,45.);
#255=ADVANCED_FACE('',(#58,#34),#250,.T.);
#256=ADVANCED_FACE('',(#59,#35),#26,.T.);
#257=ADVANCED_FACE('',(#60,#36),#21,.T.);
#258=ADVANCED_FACE('',(#61,#37),#251,.T.);
#259=ADVANCED_FACE('',(#62,#38),#22,.T.);
#260=ADVANCED_FACE('',(#63,#39),#15,.F.);
#261=ADVANCED_FACE('',(#64,#40),#27,.T.);
#262=ADVANCED_FACE('',(#65,#41),#23,.T.);
#263=ADVANCED_FACE('',(#66,#42),#16,.T.);
#264=ADVANCED_FACE('',(#67,#43),#28,.T.);
#265=ADVANCED_FACE('',(#68,#44),#252,.T.);
#266=ADVANCED_FACE('',(#69,#45),#17,.T.);
#267=ADVANCED_FACE('',(#70,#46),#29,.T.);
#268=ADVANCED_FACE('',(#71,#47),#24,.T.);
#269=ADVANCED_FACE('',(#72,#48),#18,.F.);
#270=ADVANCED_FACE('',(#73,#49),#30,.T.);
#271=ADVANCED_FACE('',(#74,#50),#19,.F.);
#272=ADVANCED_FACE('',(#75,#51),#20,.T.);
#273=ADVANCED_FACE('',(#76,#52),#31,.T.);
#274=ADVANCED_FACE('',(#77,#53),#25,.T.);
#275=ADVANCED_FACE('',(#78,#54),#253,.T.);
#276=ADVANCED_FACE('',(#79,#55),#32,.T.);
#277=ADVANCED_FACE('',(#80,#56),#254,.T.);
#278=ADVANCED_FACE('',(#81,#57),#33,.F.);
#279=CLOSED_SHELL('',(#255,#256,#257,#258,#259,#260,#261,#262,#263,#264,
#265,#266,#267,#268,#269,#270,#271,#272,#273,#274,#275,#276,#277,#278));
#280=AXIS2_PLACEMENT_3D('placement',#427,#329,#330);
#281=AXIS2_PLACEMENT_3D('',#428,#331,#332);
#282=AXIS2_PLACEMENT_3D('',#430,#333,#334);
#283=AXIS2_PLACEMENT_3D('',#432,#335,#336);
#284=AXIS2_PLACEMENT_3D('',#433,#337,#338);
#285=AXIS2_PLACEMENT_3D('',#435,#339,#340);
#286=AXIS2_PLACEMENT_3D('',#436,#341,#342);
#287=AXIS2_PLACEMENT_3D('',#438,#343,#344);
#288=AXIS2_PLACEMENT_3D('',#439,#345,#346);
#289=AXIS2_PLACEMENT_3D('',#441,#347,#348);
#290=AXIS2_PLACEMENT_3D('',#442,#349,#350);
#291=AXIS2_PLACEMENT_3D('',#444,#351,#352);
#292=AXIS2_PLACEMENT_3D('',#445,#353,#354);
#293=AXIS2_PLACEMENT_3D('',#447,#355,#356);
#294=AXIS2_PLACEMENT_3D('',#449,#357,#358);
#295=AXIS2_PLACEMENT_3D('',#450,#359,#360);
#296=AXIS2_PLACEMENT_3D('',#452,#361,#362);
#297=AXIS2_PLACEMENT_3D('',#453,#363,#364);
#298=AXIS2_PLACEMENT_3D('',#455,#365,#366);
#299=AXIS2_PLACEMENT_3D('',#456,#367,#368);
#300=AXIS2_PLACEMENT_3D('',#458,#369,#370);
#301=AXIS2_PLACEMENT_3D('',#460,#371,#372);
#302=AXIS2_PLACEMENT_3D('',#461,#373,#374);
#303=AXIS2_PLACEMENT_3D('',#462,#375,#376);
#304=AXIS2_PLACEMENT_3D('',#464,#377,#378);
#305=AXIS2_PLACEMENT_3D('',#465,#379,#380);
#306=AXIS2_PLACEMENT_3D('',#467,#381,#382);
#307=AXIS2_PLACEMENT_3D('',#469,#383,#384);
#308=AXIS2_PLACEMENT_3D('',#470,#385,#386);
#309=AXIS2_PLACEMENT_3D('',#471,#387,#388);
#310=AXIS2_PLACEMENT_3D('',#473,#389,#390);
#311=AXIS2_PLACEMENT_3D('',#474,#391,#392);
#312=AXIS2_PLACEMENT_3D('',#476,#393,#394);
#313=AXIS2_PLACEMENT_3D('',#477,#395,#396);
#314=AXIS2_PLACEMENT_3D('',#479,#397,#398);
#315=AXIS2_PLACEMENT_3D('',#480,#399,#400);
#316=AXIS2_PLACEMENT_3D('',#481,#401,#402);
#317=AXIS2_PLACEMENT_3D('',#483,#403,#404);
#318=AXIS2_PLACEMENT_3D('',#485,#405,#406);
#319=AXIS2_PLACEMENT_3D('',#486,#407,#408);
#320=AXIS2_PLACEMENT_3D('',#488,#409,#410);
#321=AXIS2_PLACEMENT_3D('',#489,#411,#412);
#322=AXIS2_PLACEMENT_3D('',#491,#413,#414);
#323=AXIS2_PLACEMENT_3D('',#492,#415,#416);
#324=AXIS2_PLACEMENT_3D('',#494,#417,#418);
#325=AXIS2_PLACEMENT_3D('',#495,#419,#420);
#326=AXIS2_PLACEMENT_3D('',#497,#421,#422);
#327=AXIS2_PLACEMENT_3D('',#498,#423,#424);
#328=AXIS2_PLACEMENT_3D('',#499,#425,#426);
#329=DIRECTION('axis',(0.,0.,1.));
#330=DIRECTION('refdir',(1.,0.,0.));
#331=DIRECTION('center_axis',(-1.,0.,0.));
#332=DIRECTION('ref_axis',(0.,-1.,0.));
#333=DIRECTION('center_axis',(1.,0.,0.));
#334=DIRECTION('ref_axis',(0.,-1.,0.));
#335=DIRECTION('center_axis',(-1.,0.,0.));
#336=DIRECTION('ref_axis',(0.,-1.,0.));
#337=DIRECTION('center_axis',(1.,0.,0.));
#338=DIRECTION('ref_axis',(0.,1.,0.));
#339=DIRECTION('center_axis',(-1.,0.,0.));
#340=DIRECTION('ref_axis',(0.,-1.,0.));
#341=DIRECTION('center_axis',(1.,0.,0.));
#342=DIRECTION('ref_axis',(0.,0.,-1.));
#343=DIRECTION('center_axis',(1.,0.,0.));
#344=DIRECTION('ref_axis',(0.,-1.,1.83697019872103E-16));
#345=DIRECTION('center_axis',(1.,0.,0.));
#346=DIRECTION('ref_axis',(0.,-1.,0.));
#347=DIRECTION('center_axis',(1.,0.,0.));
#348=DIRECTION('ref_axis',(0.,-1.,0.));
#349=DIRECTION('center_axis',(-1.,0.,0.));
#350=DIRECTION('ref_axis',(0.,0.,1.));
#351=DIRECTION('center_axis',(-1.,0.,0.));
#352=DIRECTION('ref_axis',(0.,-1.,1.83697019872103E-16));
#353=DIRECTION('center_axis',(1.,0.,0.));
#354=DIRECTION('ref_axis',(0.,0.,-1.));
#355=DIRECTION('center_axis',(1.,0.,0.));
#356=DIRECTION('ref_axis',(0.,-1.,1.83697019872103E-16));
#357=DIRECTION('center_axis',(-1.,0.,0.));
#358=DIRECTION('ref_axis',(0.,-1.,1.83697019872103E-16));
#359=DIRECTION('center_axis',(1.,0.,0.));
#360=DIRECTION('ref_axis',(0.,1.,0.));
#361=DIRECTION('center_axis',(-1.,0.,0.));
#362=DIRECTION('ref_axis',(0.,-1.,1.83697019872103E-16));
#363=DIRECTION('center_axis',(-1.,0.,0.));
#364=DIRECTION('ref_axis',(0.,0.,1.));
#365=DIRECTION('center_axis',(1.,0.,0.));
#366=DIRECTION('ref_axis',(0.,0.,-1.));
#367=DIRECTION('center_axis',(1.,0.,0.));
#368=DIRECTION('ref_axis',(0.,0.,-1.));
#369=DIRECTION('center_axis',(1.,0.,0.));
#370=DIRECTION('ref_axis',(0.,-1.,1.83697019872103E-16));
#371=DIRECTION('center_axis',(-1.,0.,0.));
#372=DIRECTION('ref_axis',(0.,-1.,3.06161699786838E-17));
#373=DIRECTION('center_axis',(1.,0.,0.));
#374=DIRECTION('ref_axis',(0.,1.,0.));
#375=DIRECTION('center_axis',(-1.,0.,0.));
#376=DIRECTION('ref_axis',(0.,1.,0.));
#377=DIRECTION('center_axis',(1.,0.,0.));
#378=DIRECTION('ref_axis',(0.,0.,-1.));
#379=DIRECTION('center_axis',(1.,0.,0.));
#380=DIRECTION('ref_axis',(0.,0.,-1.));
#381=DIRECTION('center_axis',(1.,0.,0.));
#382=DIRECTION('ref_axis',(0.,-1.,1.83697019872103E-16));
#383=DIRECTION('center_axis',(-1.,0.,0.));
#384=DIRECTION('ref_axis',(0.,-1.,1.83697019872103E-16));
#385=DIRECTION('center_axis',(1.,0.,0.));
#386=DIRECTION('ref_axis',(0.,1.,0.));
#387=DIRECTION('center_axis',(1.,0.,0.));
#388=DIRECTION('ref_axis',(0.,0.,-1.));
#389=DIRECTION('center_axis',(1.,0.,0.));
#390=DIRECTION('ref_axis',(0.,0.,-1.));
#391=DIRECTION('center_axis',(1.,0.,0.));
#392=DIRECTION('ref_axis',(0.,0.,-1.));
#393=DIRECTION('center_axis',(1.,0.,0.));
#394=DIRECTION('ref_axis',(0.,-1.,1.83697019872103E-16));
#395=DIRECTION('center_axis',(1.,0.,0.));
#396=DIRECTION('ref_axis',(0.,1.,0.));
#397=DIRECTION('center_axis',(1.,0.,0.));
#398=DIRECTION('ref_axis',(0.,0.,-1.));
#399=DIRECTION('center_axis',(1.,0.,0.));
#400=DIRECTION('ref_axis',(0.,0.,-1.));
#401=DIRECTION('center_axis',(1.,0.,0.));
#402=DIRECTION('ref_axis',(0.,0.,-1.));
#403=DIRECTION('center_axis',(1.,0.,0.));
#404=DIRECTION('ref_axis',(0.,-1.,1.83697019872103E-16));
#405=DIRECTION('center_axis',(-1.,0.,0.));
#406=DIRECTION('ref_axis',(0.,-1.,1.83697019872103E-16));
#407=DIRECTION('center_axis',(1.,0.,0.));
#408=DIRECTION('ref_axis',(0.,1.,0.));
#409=DIRECTION('center_axis',(1.,0.,0.));
#410=DIRECTION('ref_axis',(0.,0.,-1.));
#411=DIRECTION('center_axis',(-1.,0.,0.));
#412=DIRECTION('ref_axis',(0.,0.,1.));
#413=DIRECTION('center_axis',(1.,0.,0.));
#414=DIRECTION('ref_axis',(0.,0.,-1.));
#415=DIRECTION('center_axis',(-1.,0.,0.));
#416=DIRECTION('ref_axis',(0.,1.,0.));
#417=DIRECTION('center_axis',(1.,0.,0.));
#418=DIRECTION('ref_axis',(0.,0.,-1.));
#419=DIRECTION('center_axis',(1.,0.,0.));
#420=DIRECTION('ref_axis',(0.,1.,0.));
#421=DIRECTION('center_axis',(1.,0.,0.));
#422=DIRECTION('ref_axis',(0.,0.,-1.));
#423=DIRECTION('center_axis',(1.,0.,0.));
#424=DIRECTION('ref_axis',(0.,1.,0.));
#425=DIRECTION('center_axis',(1.,0.,0.));
#426=DIRECTION('ref_axis',(0.,1.,0.));
#427=CARTESIAN_POINT('',(0.,0.,0.));
#428=CARTESIAN_POINT('Origin',(6.45,0.,0.));
#429=CARTESIAN_POINT('',(6.4,2.5,3.06161699786838E-16));
#430=CARTESIAN_POINT('Origin',(6.4,0.,0.));
#431=CARTESIAN_POINT('',(6.5,2.4,-2.93915231795365E-16));
#432=CARTESIAN_POINT('Origin',(6.5,0.,0.));
#433=CARTESIAN_POINT('Origin',(5.75,0.,0.));
#434=CARTESIAN_POINT('',(5.1,2.5,-3.06161699786838E-16));
#435=CARTESIAN_POINT('Origin',(5.1,0.,0.));
#436=CARTESIAN_POINT('Origin',(6.5,1.75,0.));
#437=CARTESIAN_POINT('',(6.5,1.95,-1.19403062916867E-16));
#438=CARTESIAN_POINT('Origin',(6.5,0.,0.));
#439=CARTESIAN_POINT('Origin',(5.05,0.,0.));
#440=CARTESIAN_POINT('',(5.,2.4,2.93915231795365E-16));
#441=CARTESIAN_POINT('Origin',(5.,0.,0.));
#442=CARTESIAN_POINT('Origin',(5.,2.5,0.));
#443=CARTESIAN_POINT('',(5.,1.55,-4.74550634669599E-16));
#444=CARTESIAN_POINT('Origin',(5.,0.,0.));
#445=CARTESIAN_POINT('Origin',(11.2,0.,0.));
#446=CARTESIAN_POINT('',(11.2,1.75,-1.07156594925393E-16));
#447=CARTESIAN_POINT('Origin',(11.2,0.,0.));
#448=CARTESIAN_POINT('',(11.3,1.85,-5.66399144605651E-16));
#449=CARTESIAN_POINT('Origin',(11.3,0.,0.));
#450=CARTESIAN_POINT('Origin',(8.9,0.,0.));
#451=CARTESIAN_POINT('',(6.7,1.75,-5.35782974626967E-16));
#452=CARTESIAN_POINT('Origin',(6.7,0.,0.));
#453=CARTESIAN_POINT('Origin',(11.3,1.975,0.));
#454=CARTESIAN_POINT('',(11.3,1.975,0.));
#455=CARTESIAN_POINT('Origin',(11.3,0.,0.));
#456=CARTESIAN_POINT('Origin',(11.4778305337357,0.,0.));
#457=CARTESIAN_POINT('',(11.4778305337357,1.975,-1.20933871415801E-16));
#458=CARTESIAN_POINT('Origin',(11.4778305337357,0.,0.));
#459=CARTESIAN_POINT('',(11.5200923599098,1.96563077870367,-6.01800860361241E-16));
#460=CARTESIAN_POINT('Origin',(11.5200923599098,0.,-3.0090043018062E-16));
#461=CARTESIAN_POINT('Origin',(11.4,0.,0.));
#462=CARTESIAN_POINT('Origin',(11.9020950475955,0.,0.));
#463=CARTESIAN_POINT('',(12.3041900951911,1.6,0.));
#464=CARTESIAN_POINT('Origin',(12.3041900951911,0.,0.));
#465=CARTESIAN_POINT('Origin',(12.8,0.,0.));
#466=CARTESIAN_POINT('',(12.8,1.6,-9.79717439317883E-17));
#467=CARTESIAN_POINT('Origin',(12.8,0.,0.));
#468=CARTESIAN_POINT('',(13.,1.4,-4.28626379701574E-16));
#469=CARTESIAN_POINT('Origin',(13.,0.,0.));
#470=CARTESIAN_POINT('Origin',(12.6520950475955,0.,0.));
#471=CARTESIAN_POINT('Origin',(13.,0.75,0.));
#472=CARTESIAN_POINT('',(13.,0.75,0.));
#473=CARTESIAN_POINT('Origin',(13.,0.,0.));
#474=CARTESIAN_POINT('Origin',(4.7,0.,0.));
#475=CARTESIAN_POINT('',(4.7,1.25,-7.65404249467096E-17));
#476=CARTESIAN_POINT('Origin',(4.7,0.,0.));
#477=CARTESIAN_POINT('Origin',(3.9,0.,0.));
#478=CARTESIAN_POINT('',(2.8,1.25,0.));
#479=CARTESIAN_POINT('Origin',(2.8,0.,0.));
#480=CARTESIAN_POINT('Origin',(6.7,0.,0.));
#481=CARTESIAN_POINT('Origin',(0.2,0.,0.));
#482=CARTESIAN_POINT('',(0.,1.05,-6.4293956955236E-17));
#483=CARTESIAN_POINT('Origin',(0.,0.,0.));
#484=CARTESIAN_POINT('',(0.2,1.25,-3.82702124733548E-16));
#485=CARTESIAN_POINT('Origin',(0.2,0.,0.));
#486=CARTESIAN_POINT('Origin',(0.8,0.,0.));
#487=CARTESIAN_POINT('',(1.6,1.25,0.));
#488=CARTESIAN_POINT('Origin',(1.6,0.,0.));
#489=CARTESIAN_POINT('Origin',(0.,1.25,0.));
#490=CARTESIAN_POINT('',(0.,0.75,0.));
#491=CARTESIAN_POINT('Origin',(0.,0.,0.));
#492=CARTESIAN_POINT('Origin',(1.725,0.,0.));
#493=CARTESIAN_POINT('',(1.85,1.,0.));
#494=CARTESIAN_POINT('Origin',(1.85,0.,0.));
#495=CARTESIAN_POINT('Origin',(2.2,0.,0.));
#496=CARTESIAN_POINT('',(2.55,1.,0.));
#497=CARTESIAN_POINT('Origin',(2.55,0.,0.));
#498=CARTESIAN_POINT('Origin',(2.675,0.,0.));
#499=CARTESIAN_POINT('Origin',(6.5,0.,0.));
#500=UNCERTAINTY_MEASURE_WITH_UNIT(LENGTH_MEASURE(0.01),#504,
'DISTANCE_ACCURACY_VALUE',
'Maximum model space distance between geometric entities at asserted c
onnectivities');
#501=UNCERTAINTY_MEASURE_WITH_UNIT(LENGTH_MEASURE(1.E-6),#504,
'DISTANCE_ACCURACY_VALUE',
'Maximum model space distance between geometric entities at asserted c
onnectivities');
#502=(
GEOMETRIC_REPRESENTATION_CONTEXT(3)
GLOBAL_UNCERTAINTY_ASSIGNED_CONTEXT((#500))
GLOBAL_UNIT_ASSIGNED_CONTEXT((#504,#507,#505))
REPRESENTATION_CONTEXT('','3D')
);
#503=(
GEOMETRIC_REPRESENTATION_CONTEXT(3)
GLOBAL_UNCERTAINTY_ASSIGNED_CONTEXT((#501))
GLOBAL_UNIT_ASSIGNED_CONTEXT((#504,#507,#505))
REPRESENTATION_CONTEXT('','3D')
);
#504=(
LENGTH_UNIT()
NAMED_UNIT(*)
SI_UNIT(.MILLI.,.METRE.)
);
#505=(
NAMED_UNIT(*)
SI_UNIT($,.STERADIAN.)
SOLID_ANGLE_UNIT()
);
#506=DIMENSIONAL_EXPONENTS(0.,0.,0.,0.,0.,0.,0.);
#507=(
CONVERSION_BASED_UNIT('degree',#509)
NAMED_UNIT(#506)
PLANE_ANGLE_UNIT()
);
#508=(
NAMED_UNIT(*)
PLANE_ANGLE_UNIT()
SI_UNIT($,.RADIAN.)
);
#509=PLANE_ANGLE_MEASURE_WITH_UNIT(PLANE_ANGLE_MEASURE(0.01745329252),#508);
#510=SHAPE_DEFINITION_REPRESENTATION(#511,#512);
#511=PRODUCT_DEFINITION_SHAPE('',$,#514);
#512=SHAPE_REPRESENTATION('',(#280),#502);
#513=PRODUCT_DEFINITION_CONTEXT('part definition',#518,'design');
#514=PRODUCT_DEFINITION('02SFTF03MXN','02SFTF03MXN',#515,#513);
#515=PRODUCT_DEFINITION_FORMATION('',$,#520);
#516=PRODUCT_RELATED_PRODUCT_CATEGORY('02SFTF03MXN','02SFTF03MXN',(#520));
#517=APPLICATION_PROTOCOL_DEFINITION('international standard',
'automotive_design',2009,#518);
#518=APPLICATION_CONTEXT(
'Core Data for Automotive Mechanical Design Process');
#519=PRODUCT_CONTEXT('part definition',#518,'mechanical');
#520=PRODUCT('02SFTF03MXN','02SFTF03MXN',$,(#519));
#521=PRESENTATION_STYLE_ASSIGNMENT((#522));
#522=SURFACE_STYLE_USAGE(.BOTH.,#523);
#523=SURFACE_SIDE_STYLE('',(#524));
#524=SURFACE_STYLE_FILL_AREA(#525);
#525=FILL_AREA_STYLE('',(#526));
#526=FILL_AREA_STYLE_COLOUR('',#527);
#527=COLOUR_RGB('',0.780392156862745,0.568627450980392,0.113725490196078);
ENDSEC;
END-ISO-10303-21;
