ISO-10303-21;
HEADER;
FILE_DESCRIPTION( ( 'STEP AP214' ), '1' );
FILE_NAME( 'C:/Users/azilaghe/AppData/Local/Temp/psolqas_1104_10.stp', '2021-03-04T17:30:55', ( 'License CC BY-ND 4.0' ), ( 'CADENAS' ), ' ', 'PARTsolutions', ' ' );
FILE_SCHEMA( ( 'AUTOMOTIVE_DESIGN { 1 0 10303 214 1 1 1 1 }' ) );
ENDSEC;
DATA;
#1 = MECHANICAL_DESIGN_GEOMETRIC_PRESENTATION_REPRESENTATION( ' ', ( #10, #11, #12, #13, #14, #15, #16, #17, #18, #19 ), #6 );
#2 = PRODUCT_DEFINITION_CONTEXT( '', #20, 'design' );
#3 = APPLICATION_PROTOCOL_DEFINITION( 'international standard', 'automotive_design', 2001, #20 );
#4 = PRODUCT_CATEGORY_RELATIONSHIP( 'NONE', 'NONE', #21, #22 );
#5 = SHAPE_DEFINITION_REPRESENTATION( #23, #24 );
#6 =  ( GEOMETRIC_REPRESENTATION_CONTEXT( 3 )GLOBAL_UNCERTAINTY_ASSIGNED_CONTEXT( ( #27 ) )GLOBAL_UNIT_ASSIGNED_CONTEXT( ( #29, #30, #31 ) )REPRESENTATION_CONTEXT( 'NONE', 'WORKSPACE' ) );
#10 = STYLED_ITEM( '', ( #33 ), #34 );
#11 = STYLED_ITEM( '', ( #35 ), #36 );
#12 = STYLED_ITEM( '', ( #37 ), #38 );
#13 = STYLED_ITEM( '', ( #39 ), #40 );
#14 = STYLED_ITEM( '', ( #41 ), #42 );
#15 = STYLED_ITEM( '', ( #43 ), #44 );
#16 = STYLED_ITEM( '', ( #45 ), #46 );
#17 = STYLED_ITEM( '', ( #47 ), #48 );
#18 = STYLED_ITEM( '', ( #49 ), #50 );
#19 = STYLED_ITEM( '', ( #51 ), #52 );
#20 = APPLICATION_CONTEXT( 'core data for automotive mechanical design processes' );
#21 = PRODUCT_CATEGORY( 'part', 'NONE' );
#22 = PRODUCT_RELATED_PRODUCT_CATEGORY( 'detail', ' ', ( #53 ) );
#23 = PRODUCT_DEFINITION_SHAPE( 'NONE', 'NONE', #54 );
#24 = ADVANCED_BREP_SHAPE_REPRESENTATION( 'Dentino x3', ( #55, #56 ), #6 );
#27 = UNCERTAINTY_MEASURE_WITH_UNIT( LENGTH_MEASURE( 1.00000000000000E-06 ), #29, '', '' );
#29 =  ( CONVERSION_BASED_UNIT( 'METRE', #59 )LENGTH_UNIT(  )NAMED_UNIT( #62 ) );
#30 =  ( NAMED_UNIT( #64 )PLANE_ANGLE_UNIT(  )SI_UNIT( $, .RADIAN. ) );
#31 =  ( NAMED_UNIT( #64 )SI_UNIT( $, .STERADIAN. )SOLID_ANGLE_UNIT(  ) );
#33 = PRESENTATION_STYLE_ASSIGNMENT( ( #70 ) );
#34 = ADVANCED_FACE( 'NONE', ( #71 ), #72, .F. );
#35 = PRESENTATION_STYLE_ASSIGNMENT( ( #73 ) );
#36 = ADVANCED_FACE( 'NONE', ( #74 ), #75, .F. );
#37 = PRESENTATION_STYLE_ASSIGNMENT( ( #76 ) );
#38 = ADVANCED_FACE( 'NONE', ( #77 ), #78, .F. );
#39 = PRESENTATION_STYLE_ASSIGNMENT( ( #79 ) );
#40 = ADVANCED_FACE( 'NONE', ( #80 ), #81, .F. );
#41 = PRESENTATION_STYLE_ASSIGNMENT( ( #82 ) );
#42 = ADVANCED_FACE( 'NONE', ( #83 ), #84, .F. );
#43 = PRESENTATION_STYLE_ASSIGNMENT( ( #85 ) );
#44 = ADVANCED_FACE( 'NONE', ( #86, #87 ), #88, .T. );
#45 = PRESENTATION_STYLE_ASSIGNMENT( ( #89 ) );
#46 = ADVANCED_FACE( 'NONE', ( #90 ), #91, .F. );
#47 = PRESENTATION_STYLE_ASSIGNMENT( ( #92 ) );
#48 = ADVANCED_FACE( 'NONE', ( #93, #94 ), #95, .T. );
#49 = PRESENTATION_STYLE_ASSIGNMENT( ( #96 ) );
#50 = ADVANCED_FACE( 'NONE', ( #97, #98 ), #99, .T. );
#51 = PRESENTATION_STYLE_ASSIGNMENT( ( #100 ) );
#52 = ADVANCED_FACE( 'NONE', ( #101, #102 ), #103, .F. );
#53 = PRODUCT( 'Dentino x3', 'Dentino x3', 'PART-Dentino x3-DESC', ( #104 ) );
#54 = PRODUCT_DEFINITION( 'NONE', 'NONE', #105, #2 );
#55 = MANIFOLD_SOLID_BREP( 'Dentino x3', #106 );
#56 = AXIS2_PLACEMENT_3D( '', #107, #108, #109 );
#59 = LENGTH_MEASURE_WITH_UNIT( LENGTH_MEASURE( 1.00000000000000 ), #110 );
#62 = DIMENSIONAL_EXPONENTS( 1.00000000000000, 0.000000000000000, 0.000000000000000, 0.000000000000000, 0.000000000000000, 0.000000000000000, 0.000000000000000 );
#64 = DIMENSIONAL_EXPONENTS( 0.000000000000000, 0.000000000000000, 0.000000000000000, 0.000000000000000, 0.000000000000000, 0.000000000000000, 0.000000000000000 );
#70 = SURFACE_STYLE_USAGE( .BOTH., #111 );
#71 = FACE_OUTER_BOUND( '', #112, .T. );
#72 = PLANE( '', #113 );
#73 = SURFACE_STYLE_USAGE( .BOTH., #114 );
#74 = FACE_OUTER_BOUND( '', #115, .T. );
#75 = PLANE( '', #116 );
#76 = SURFACE_STYLE_USAGE( .BOTH., #117 );
#77 = FACE_OUTER_BOUND( '', #118, .T. );
#78 = PLANE( '', #119 );
#79 = SURFACE_STYLE_USAGE( .BOTH., #120 );
#80 = FACE_OUTER_BOUND( '', #121, .T. );
#81 = PLANE( '', #122 );
#82 = SURFACE_STYLE_USAGE( .BOTH., #123 );
#83 = FACE_OUTER_BOUND( '', #124, .T. );
#84 = PLANE( '', #125 );
#85 = SURFACE_STYLE_USAGE( .BOTH., #126 );
#86 = FACE_OUTER_BOUND( '', #127, .T. );
#87 = FACE_BOUND( '', #128, .T. );
#88 = PLANE( '', #129 );
#89 = SURFACE_STYLE_USAGE( .BOTH., #130 );
#90 = FACE_OUTER_BOUND( '', #131, .T. );
#91 = PLANE( '', #132 );
#92 = SURFACE_STYLE_USAGE( .BOTH., #133 );
#93 = FACE_OUTER_BOUND( '', #134, .T. );
#94 = FACE_BOUND( '', #135, .T. );
#95 = PLANE( '', #136 );
#96 = SURFACE_STYLE_USAGE( .BOTH., #137 );
#97 = FACE_OUTER_BOUND( '', #138, .T. );
#98 = FACE_OUTER_BOUND( '', #139, .T. );
#99 = CYLINDRICAL_SURFACE( '', #140, 0.00695000000000000 );
#100 = SURFACE_STYLE_USAGE( .BOTH., #141 );
#101 = FACE_OUTER_BOUND( '', #142, .T. );
#102 = FACE_OUTER_BOUND( '', #143, .T. );
#103 = CYLINDRICAL_SURFACE( '', #144, 0.00495000000000000 );
#104 = PRODUCT_CONTEXT( '', #20, 'mechanical' );
#105 = PRODUCT_DEFINITION_FORMATION_WITH_SPECIFIED_SOURCE( ' ', 'NONE', #53, .NOT_KNOWN. );
#106 = CLOSED_SHELL( '', ( #42, #44, #46, #50, #38, #52, #40, #34, #36, #48 ) );
#107 = CARTESIAN_POINT( '', ( 0.000000000000000, 0.000000000000000, 0.000000000000000 ) );
#108 = DIRECTION( '', ( 0.000000000000000, 0.000000000000000, 1.00000000000000 ) );
#109 = DIRECTION( '', ( 1.00000000000000, 0.000000000000000, 0.000000000000000 ) );
#110 =  ( LENGTH_UNIT(  )NAMED_UNIT( #62 )SI_UNIT( $, .METRE. ) );
#111 = SURFACE_SIDE_STYLE( '', ( #146 ) );
#112 = EDGE_LOOP( '', ( #147, #148, #149, #150 ) );
#113 = AXIS2_PLACEMENT_3D( '', #151, #152, #153 );
#114 = SURFACE_SIDE_STYLE( '', ( #154 ) );
#115 = EDGE_LOOP( '', ( #155, #156, #157, #158 ) );
#116 = AXIS2_PLACEMENT_3D( '', #159, #160, #161 );
#117 = SURFACE_SIDE_STYLE( '', ( #162 ) );
#118 = EDGE_LOOP( '', ( #163, #164 ) );
#119 = AXIS2_PLACEMENT_3D( '', #165, #166, #167 );
#120 = SURFACE_SIDE_STYLE( '', ( #168 ) );
#121 = EDGE_LOOP( '', ( #169, #170 ) );
#122 = AXIS2_PLACEMENT_3D( '', #171, #172, #173 );
#123 = SURFACE_SIDE_STYLE( '', ( #174 ) );
#124 = EDGE_LOOP( '', ( #175, #176, #177, #178 ) );
#125 = AXIS2_PLACEMENT_3D( '', #179, #180, #181 );
#126 = SURFACE_SIDE_STYLE( '', ( #182 ) );
#127 = EDGE_LOOP( '', ( #183 ) );
#128 = EDGE_LOOP( '', ( #184, #185, #186, #187, #188, #189 ) );
#129 = AXIS2_PLACEMENT_3D( '', #190, #191, #192 );
#130 = SURFACE_SIDE_STYLE( '', ( #193 ) );
#131 = EDGE_LOOP( '', ( #194, #195 ) );
#132 = AXIS2_PLACEMENT_3D( '', #196, #197, #198 );
#133 = SURFACE_SIDE_STYLE( '', ( #199 ) );
#134 = EDGE_LOOP( '', ( #200 ) );
#135 = EDGE_LOOP( '', ( #201 ) );
#136 = AXIS2_PLACEMENT_3D( '', #202, #203, #204 );
#137 = SURFACE_SIDE_STYLE( '', ( #205 ) );
#138 = EDGE_LOOP( '', ( #206 ) );
#139 = EDGE_LOOP( '', ( #207 ) );
#140 = AXIS2_PLACEMENT_3D( '', #208, #209, #210 );
#141 = SURFACE_SIDE_STYLE( '', ( #211 ) );
#142 = EDGE_LOOP( '', ( #212, #213, #214, #215, #216, #217, #218, #219, #220, #221, #222, #223 ) );
#143 = EDGE_LOOP( '', ( #224 ) );
#144 = AXIS2_PLACEMENT_3D( '', #225, #226, #227 );
#146 = SURFACE_STYLE_FILL_AREA( #228 );
#147 = ORIENTED_EDGE( '', *, *, #229, .F. );
#148 = ORIENTED_EDGE( '', *, *, #230, .T. );
#149 = ORIENTED_EDGE( '', *, *, #231, .T. );
#150 = ORIENTED_EDGE( '', *, *, #232, .T. );
#151 = CARTESIAN_POINT( '', ( 0.000129272745452074, 0.000500000000000000, 0.00494831168756408 ) );
#152 = DIRECTION( '', ( 0.499999999999992, 0.000000000000000, 0.866025403784443 ) );
#153 = DIRECTION( '', ( -0.000000000000000, -1.00000000000000, 0.000000000000000 ) );
#154 = SURFACE_STYLE_FILL_AREA( #233 );
#155 = ORIENTED_EDGE( '', *, *, #234, .F. );
#156 = ORIENTED_EDGE( '', *, *, #235, .T. );
#157 = ORIENTED_EDGE( '', *, *, #236, .T. );
#158 = ORIENTED_EDGE( '', *, *, #237, .T. );
#159 = CARTESIAN_POINT( '', ( 0.00422072725454789, 0.000500000000000000, -0.00258610932536052 ) );
#160 = DIRECTION( '', ( 0.500000000000004, 0.000000000000000, -0.866025403784436 ) );
#161 = DIRECTION( '', ( 0.000000000000000, -1.00000000000000, 0.000000000000000 ) );
#162 = SURFACE_STYLE_FILL_AREA( #238 );
#163 = ORIENTED_EDGE( '', *, *, #239, .F. );
#164 = ORIENTED_EDGE( '', *, *, #230, .F. );
#165 = CARTESIAN_POINT( '', ( 0.00247499999999996, 0.000500000000000000, 0.00428682574873300 ) );
#166 = DIRECTION( '', ( 0.249999999999995, -0.866025403784440, 0.433012701892219 ) );
#167 = DIRECTION( '', ( -0.960768922830525, -0.277350098112609, 1.20185167898973E-17 ) );
#168 = SURFACE_STYLE_FILL_AREA( #240 );
#169 = ORIENTED_EDGE( '', *, *, #241, .F. );
#170 = ORIENTED_EDGE( '', *, *, #235, .F. );
#171 = CARTESIAN_POINT( '', ( 0.00247500000000002, 0.000500000000000000, -0.00428682574873297 ) );
#172 = DIRECTION( '', ( 0.250000000000000, -0.866025403784440, -0.433012701892215 ) );
#173 = DIRECTION( '', ( 0.000000000000000, 0.447213595499954, -0.894427190999918 ) );
#174 = SURFACE_STYLE_FILL_AREA( #242 );
#175 = ORIENTED_EDGE( '', *, *, #243, .F. );
#176 = ORIENTED_EDGE( '', *, *, #244, .T. );
#177 = ORIENTED_EDGE( '', *, *, #245, .T. );
#178 = ORIENTED_EDGE( '', *, *, #246, .T. );
#179 = CARTESIAN_POINT( '', ( -0.00435000000000000, 0.000500000000000000, -0.00236220236220354 ) );
#180 = DIRECTION( '', ( -1.00000000000000, 0.000000000000000, 0.000000000000000 ) );
#181 = DIRECTION( '', ( 0.000000000000000, 0.000000000000000, 1.00000000000000 ) );
#182 = SURFACE_STYLE_FILL_AREA( #247 );
#183 = ORIENTED_EDGE( '', *, *, #248, .T. );
#184 = ORIENTED_EDGE( '', *, *, #249, .F. );
#185 = ORIENTED_EDGE( '', *, *, #246, .F. );
#186 = ORIENTED_EDGE( '', *, *, #250, .F. );
#187 = ORIENTED_EDGE( '', *, *, #232, .F. );
#188 = ORIENTED_EDGE( '', *, *, #251, .F. );
#189 = ORIENTED_EDGE( '', *, *, #237, .F. );
#190 = CARTESIAN_POINT( '', ( 0.00495000000000000, 0.000000000000000, 0.000000000000000 ) );
#191 = DIRECTION( '', ( 0.000000000000000, -1.00000000000000, 0.000000000000000 ) );
#192 = DIRECTION( '', ( 0.000000000000000, 0.000000000000000, -1.00000000000000 ) );
#193 = SURFACE_STYLE_FILL_AREA( #252 );
#194 = ORIENTED_EDGE( '', *, *, #253, .F. );
#195 = ORIENTED_EDGE( '', *, *, #244, .F. );
#196 = CARTESIAN_POINT( '', ( -0.00495000000000000, 0.000500000000000000, 0.000000000000000 ) );
#197 = DIRECTION( '', ( -0.499999999999999, -0.866025403784439, 0.000000000000000 ) );
#198 = DIRECTION( '', ( -0.866025403784439, 0.499999999999999, 0.000000000000000 ) );
#199 = SURFACE_STYLE_FILL_AREA( #254 );
#200 = ORIENTED_EDGE( '', *, *, #255, .F. );
#201 = ORIENTED_EDGE( '', *, *, #256, .T. );
#202 = CARTESIAN_POINT( '', ( 0.00495000000000000, 0.00180000000000000, 0.000000000000000 ) );
#203 = DIRECTION( '', ( 0.000000000000000, 1.00000000000000, 0.000000000000000 ) );
#204 = DIRECTION( '', ( 1.00000000000000, 0.000000000000000, -0.000000000000000 ) );
#205 = SURFACE_STYLE_FILL_AREA( #257 );
#206 = ORIENTED_EDGE( '', *, *, #248, .F. );
#207 = ORIENTED_EDGE( '', *, *, #255, .T. );
#208 = CARTESIAN_POINT( '', ( 0.000000000000000, -0.00241515310536392, 0.000000000000000 ) );
#209 = DIRECTION( '', ( -0.000000000000000, 1.00000000000000, 0.000000000000000 ) );
#210 = DIRECTION( '', ( 0.000000000000000, 0.000000000000000, -1.00000000000000 ) );
#211 = SURFACE_STYLE_FILL_AREA( #258 );
#212 = ORIENTED_EDGE( '', *, *, #249, .T. );
#213 = ORIENTED_EDGE( '', *, *, #236, .F. );
#214 = ORIENTED_EDGE( '', *, *, #241, .T. );
#215 = ORIENTED_EDGE( '', *, *, #234, .T. );
#216 = ORIENTED_EDGE( '', *, *, #251, .T. );
#217 = ORIENTED_EDGE( '', *, *, #231, .F. );
#218 = ORIENTED_EDGE( '', *, *, #239, .T. );
#219 = ORIENTED_EDGE( '', *, *, #229, .T. );
#220 = ORIENTED_EDGE( '', *, *, #250, .T. );
#221 = ORIENTED_EDGE( '', *, *, #245, .F. );
#222 = ORIENTED_EDGE( '', *, *, #253, .T. );
#223 = ORIENTED_EDGE( '', *, *, #243, .T. );
#224 = ORIENTED_EDGE( '', *, *, #256, .F. );
#225 = CARTESIAN_POINT( '', ( 0.000000000000000, -0.00241515310536392, 0.000000000000000 ) );
#226 = DIRECTION( '', ( -0.000000000000000, 1.00000000000000, 0.000000000000000 ) );
#227 = DIRECTION( '', ( 0.000000000000000, 0.000000000000000, -1.00000000000000 ) );
#228 = FILL_AREA_STYLE( '', ( #259 ) );
#229 = EDGE_CURVE( 'NONE', #260, #261, #262, .T. );
#230 = EDGE_CURVE( 'NONE', #260, #263, #264, .T. );
#231 = EDGE_CURVE( 'NONE', #263, #265, #266, .T. );
#232 = EDGE_CURVE( 'NONE', #265, #261, #267, .T. );
#233 = FILL_AREA_STYLE( '', ( #268 ) );
#234 = EDGE_CURVE( 'NONE', #269, #270, #271, .T. );
#235 = EDGE_CURVE( 'NONE', #269, #272, #273, .T. );
#236 = EDGE_CURVE( 'NONE', #272, #274, #275, .T. );
#237 = EDGE_CURVE( 'NONE', #274, #270, #276, .T. );
#238 = FILL_AREA_STYLE( '', ( #277 ) );
#239 = EDGE_CURVE( 'NONE', #263, #260, #278, .T. );
#240 = FILL_AREA_STYLE( '', ( #279 ) );
#241 = EDGE_CURVE( 'NONE', #272, #269, #280, .T. );
#242 = FILL_AREA_STYLE( '', ( #281 ) );
#243 = EDGE_CURVE( 'NONE', #282, #283, #284, .T. );
#244 = EDGE_CURVE( 'NONE', #282, #285, #286, .T. );
#245 = EDGE_CURVE( 'NONE', #285, #287, #288, .T. );
#246 = EDGE_CURVE( 'NONE', #287, #283, #289, .T. );
#247 = FILL_AREA_STYLE( '', ( #290 ) );
#248 = EDGE_CURVE( 'NONE', #291, #291, #292, .T. );
#249 = EDGE_CURVE( 'NONE', #283, #274, #293, .T. );
#250 = EDGE_CURVE( 'NONE', #261, #287, #294, .T. );
#251 = EDGE_CURVE( 'NONE', #270, #265, #295, .T. );
#252 = FILL_AREA_STYLE( '', ( #296 ) );
#253 = EDGE_CURVE( 'NONE', #285, #282, #297, .T. );
#254 = FILL_AREA_STYLE( '', ( #298 ) );
#255 = EDGE_CURVE( 'NONE', #299, #299, #300, .T. );
#256 = EDGE_CURVE( 'NONE', #301, #301, #302, .T. );
#257 = FILL_AREA_STYLE( '', ( #303 ) );
#258 = FILL_AREA_STYLE( '', ( #304 ) );
#259 = FILL_AREA_STYLE_COLOUR( '', #305 );
#260 = VERTEX_POINT( 'NONE', #306 );
#261 = VERTEX_POINT( 'NONE', #307 );
#262 = LINE( '', #308, #309 );
#263 = VERTEX_POINT( 'NONE', #310 );
#264 = LINE( '', #311, #312 );
#265 = VERTEX_POINT( 'NONE', #313 );
#266 = LINE( '', #314, #315 );
#267 = LINE( '', #316, #317 );
#268 = FILL_AREA_STYLE_COLOUR( '', #318 );
#269 = VERTEX_POINT( 'NONE', #319 );
#270 = VERTEX_POINT( 'NONE', #320 );
#271 = LINE( '', #321, #322 );
#272 = VERTEX_POINT( 'NONE', #323 );
#273 = LINE( '', #324, #325 );
#274 = VERTEX_POINT( 'NONE', #326 );
#275 = LINE( '', #327, #328 );
#276 = LINE( '', #329, #330 );
#277 = FILL_AREA_STYLE_COLOUR( '', #331 );
#278 = ( BOUNDED_CURVE(  )B_SPLINE_CURVE( 3, ( #334, #335, #336, #337 ), .UNSPECIFIED., .F., .F. )B_SPLINE_CURVE_WITH_KNOTS( ( 4, 4 ), ( 2.64411255367123, 3.63907275350836 ), .UNSPECIFIED. )CURVE(  )GEOMETRIC_REPRESENTATION_ITEM(  )RATIONAL_B_SPLINE_CURVE( ( 1.00000000000000, 0.919191919191919, 0.919191919191919, 1.00000000000000 ) )REPRESENTATION_ITEM( '' ) );
#279 = FILL_AREA_STYLE_COLOUR( '', #343 );
#280 = ( BOUNDED_CURVE(  )B_SPLINE_CURVE( 3, ( #346, #347, #348, #349 ), .UNSPECIFIED., .F., .F. )B_SPLINE_CURVE_WITH_KNOTS( ( 4, 4 ), ( 2.64411255367123, 3.63907275350836 ), .UNSPECIFIED. )CURVE(  )GEOMETRIC_REPRESENTATION_ITEM(  )RATIONAL_B_SPLINE_CURVE( ( 1.00000000000000, 0.919191919191919, 0.919191919191919, 1.00000000000000 ) )REPRESENTATION_ITEM( '' ) );
#281 = FILL_AREA_STYLE_COLOUR( '', #355 );
#282 = VERTEX_POINT( 'NONE', #356 );
#283 = VERTEX_POINT( 'NONE', #357 );
#284 = LINE( '', #358, #359 );
#285 = VERTEX_POINT( 'NONE', #360 );
#286 = LINE( '', #361, #362 );
#287 = VERTEX_POINT( 'NONE', #363 );
#288 = LINE( '', #364, #365 );
#289 = LINE( '', #366, #367 );
#290 = FILL_AREA_STYLE_COLOUR( '', #368 );
#291 = VERTEX_POINT( '', #369 );
#292 = CIRCLE( '', #370, 0.00695000000000000 );
#293 = CIRCLE( '', #371, 0.00495000000000000 );
#294 = CIRCLE( '', #372, 0.00495000000000000 );
#295 = CIRCLE( '', #373, 0.00495000000000000 );
#296 = FILL_AREA_STYLE_COLOUR( '', #374 );
#297 = ( BOUNDED_CURVE(  )B_SPLINE_CURVE( 3, ( #377, #378, #379, #380 ), .UNSPECIFIED., .F., .F. )B_SPLINE_CURVE_WITH_KNOTS( ( 4, 4 ), ( 2.64411255367123, 3.63907275350836 ), .UNSPECIFIED. )CURVE(  )GEOMETRIC_REPRESENTATION_ITEM(  )RATIONAL_B_SPLINE_CURVE( ( 1.00000000000000, 0.919191919191919, 0.919191919191919, 1.00000000000000 ) )REPRESENTATION_ITEM( '' ) );
#298 = FILL_AREA_STYLE_COLOUR( '', #386 );
#299 = VERTEX_POINT( '', #387 );
#300 = CIRCLE( '', #388, 0.00695000000000000 );
#301 = VERTEX_POINT( '', #389 );
#302 = CIRCLE( '', #390, 0.00495000000000000 );
#303 = FILL_AREA_STYLE_COLOUR( '', #391 );
#304 = FILL_AREA_STYLE_COLOUR( '', #392 );
#305 = COLOUR_RGB( '', 0.250980407000000, 0.250980407000000, 0.250980407000000 );
#306 = CARTESIAN_POINT( '', ( 0.000129272745452074, 0.000153589838486225, 0.00494831168756408 ) );
#307 = CARTESIAN_POINT( '', ( 0.000129272745452074, 0.000000000000000, 0.00494831168756408 ) );
#308 = CARTESIAN_POINT( '', ( 0.000129272745462074, 0.000500000000010000, 0.00494831168757408 ) );
#309 = VECTOR( '', #393, 1.00000000000000 );
#310 = CARTESIAN_POINT( '', ( 0.00422072725454786, 0.000153589838486225, 0.00258610932536057 ) );
#311 = CARTESIAN_POINT( '', ( 0.000129272745462074, 0.000153589838496225, 0.00494831168757408 ) );
#312 = VECTOR( '', #394, 1.00000000000000 );
#313 = CARTESIAN_POINT( '', ( 0.00422072725454786, 0.000000000000000, 0.00258610932536057 ) );
#314 = CARTESIAN_POINT( '', ( 0.00422072725455786, 0.000500000000010000, 0.00258610932537057 ) );
#315 = VECTOR( '', #395, 1.00000000000000 );
#316 = CARTESIAN_POINT( '', ( 0.000129272745462074, 0.000000000000000, 0.00494831168757408 ) );
#317 = VECTOR( '', #396, 1.00000000000000 );
#318 = COLOUR_RGB( '', 0.250980407000000, 0.250980407000000, 0.250980407000000 );
#319 = CARTESIAN_POINT( '', ( 0.00422072725454789, 0.000153589838486224, -0.00258610932536052 ) );
#320 = CARTESIAN_POINT( '', ( 0.00422072725454789, 0.000000000000000, -0.00258610932536052 ) );
#321 = CARTESIAN_POINT( '', ( 0.00422072725455789, 0.000500000000010000, -0.00258610932537052 ) );
#322 = VECTOR( '', #397, 1.00000000000000 );
#323 = CARTESIAN_POINT( '', ( 0.000129272745452143, 0.000153589838486224, -0.00494831168756408 ) );
#324 = CARTESIAN_POINT( '', ( 0.00422072725455789, 0.000153589838496224, -0.00258610932537052 ) );
#325 = VECTOR( '', #398, 1.00000000000000 );
#326 = CARTESIAN_POINT( '', ( 0.000129272745452143, 0.000000000000000, -0.00494831168756408 ) );
#327 = CARTESIAN_POINT( '', ( 0.000129272745462143, 0.000500000000010000, -0.00494831168757408 ) );
#328 = VECTOR( '', #399, 1.00000000000000 );
#329 = CARTESIAN_POINT( '', ( 0.00422072725455789, 0.000000000000000, -0.00258610932537052 ) );
#330 = VECTOR( '', #400, 1.00000000000000 );
#331 = COLOUR_RGB( '', 0.250980407000000, 0.250980407000000, 0.250980407000000 );
#334 = CARTESIAN_POINT( '', ( 0.00422072725455786, 0.000153589838496225, 0.00258610932537057 ) );
#335 = CARTESIAN_POINT( '', ( 0.00332564834506579, 0.000625621267372137, 0.00404694623246359 ) );
#336 = CARTESIAN_POINT( '', ( 0.00184193407253655, 0.000625621267372137, 0.00490356906710882 ) );
#337 = CARTESIAN_POINT( '', ( 0.000129272745462074, 0.000153589838496225, 0.00494831168757408 ) );
#343 = COLOUR_RGB( '', 0.250980407000000, 0.250980407000000, 0.250980407000000 );
#346 = CARTESIAN_POINT( '', ( 0.000129272745462143, 0.000153589838496224, -0.00494831168757408 ) );
#347 = CARTESIAN_POINT( '', ( 0.00184193407253661, 0.000625621267372134, -0.00490356906710879 ) );
#348 = CARTESIAN_POINT( '', ( 0.00332564834506584, 0.000625621267372135, -0.00404694623246355 ) );
#349 = CARTESIAN_POINT( '', ( 0.00422072725455789, 0.000153589838496224, -0.00258610932537052 ) );
#355 = COLOUR_RGB( '', 0.250980407000000, 0.250980407000000, 0.250980407000000 );
#356 = CARTESIAN_POINT( '', ( -0.00435000000000000, 0.000153589838486225, -0.00236220236220354 ) );
#357 = CARTESIAN_POINT( '', ( -0.00435000000000000, 0.000000000000000, -0.00236220236220354 ) );
#358 = CARTESIAN_POINT( '', ( -0.00435000000001000, 0.000500000000010000, -0.00236220236221355 ) );
#359 = VECTOR( '', #401, 1.00000000000000 );
#360 = CARTESIAN_POINT( '', ( -0.00435000000000000, 0.000153589838486225, 0.00236220236220354 ) );
#361 = CARTESIAN_POINT( '', ( -0.00435000000001000, 0.000153589838496225, -0.00236220236221355 ) );
#362 = VECTOR( '', #402, 1.00000000000000 );
#363 = CARTESIAN_POINT( '', ( -0.00435000000000000, 0.000000000000000, 0.00236220236220354 ) );
#364 = CARTESIAN_POINT( '', ( -0.00435000000001000, 0.000500000000010000, 0.00236220236221355 ) );
#365 = VECTOR( '', #403, 1.00000000000000 );
#366 = CARTESIAN_POINT( '', ( -0.00435000000001000, 0.000000000000000, -0.00236220236221355 ) );
#367 = VECTOR( '', #404, 1.00000000000000 );
#368 = COLOUR_RGB( '', 0.250980407000000, 0.250980407000000, 0.250980407000000 );
#369 = CARTESIAN_POINT( '', ( 0.000000000000000, 0.000000000000000, -0.00695000000001000 ) );
#370 = AXIS2_PLACEMENT_3D( '', #405, #406, #407 );
#371 = AXIS2_PLACEMENT_3D( '', #408, #409, #410 );
#372 = AXIS2_PLACEMENT_3D( '', #411, #412, #413 );
#373 = AXIS2_PLACEMENT_3D( '', #414, #415, #416 );
#374 = COLOUR_RGB( '', 0.250980407000000, 0.250980407000000, 0.250980407000000 );
#377 = CARTESIAN_POINT( '', ( -0.00435000000001000, 0.000153589838496225, 0.00236220236221355 ) );
#378 = CARTESIAN_POINT( '', ( -0.00516758241759242, 0.000625621267372139, 0.000856622834655241 ) );
#379 = CARTESIAN_POINT( '', ( -0.00516758241759242, 0.000625621267372138, -0.000856622834655241 ) );
#380 = CARTESIAN_POINT( '', ( -0.00435000000001000, 0.000153589838496225, -0.00236220236221355 ) );
#386 = COLOUR_RGB( '', 0.250980407000000, 0.250980407000000, 0.250980407000000 );
#387 = CARTESIAN_POINT( '', ( 0.000000000000000, 0.00180000000001000, -0.00695000000001000 ) );
#388 = AXIS2_PLACEMENT_3D( '', #417, #418, #419 );
#389 = CARTESIAN_POINT( '', ( 0.000000000000000, 0.00180000000001000, -0.00495000000001000 ) );
#390 = AXIS2_PLACEMENT_3D( '', #420, #421, #422 );
#391 = COLOUR_RGB( '', 0.250980407000000, 0.250980407000000, 0.250980407000000 );
#392 = COLOUR_RGB( '', 0.250980407000000, 0.250980407000000, 0.250980407000000 );
#393 = DIRECTION( '', ( 0.000000000000000, -1.00000000000000, 0.000000000000000 ) );
#394 = DIRECTION( '', ( 0.866025403784441, 0.000000000000000, -0.499999999999995 ) );
#395 = DIRECTION( '', ( 0.000000000000000, -1.00000000000000, 0.000000000000000 ) );
#396 = DIRECTION( '', ( -0.866025403784441, 0.000000000000000, 0.499999999999995 ) );
#397 = DIRECTION( '', ( 0.000000000000000, -1.00000000000000, 0.000000000000000 ) );
#398 = DIRECTION( '', ( -0.866025403784434, 0.000000000000000, -0.500000000000007 ) );
#399 = DIRECTION( '', ( 0.000000000000000, -1.00000000000000, 0.000000000000000 ) );
#400 = DIRECTION( '', ( 0.866025403784434, 0.000000000000000, 0.500000000000007 ) );
#401 = DIRECTION( '', ( 0.000000000000000, -1.00000000000000, 0.000000000000000 ) );
#402 = DIRECTION( '', ( 0.000000000000000, 0.000000000000000, 1.00000000000000 ) );
#403 = DIRECTION( '', ( 0.000000000000000, -1.00000000000000, 0.000000000000000 ) );
#404 = DIRECTION( '', ( 0.000000000000000, 0.000000000000000, -1.00000000000000 ) );
#405 = CARTESIAN_POINT( '', ( 0.000000000000000, 0.000000000000000, 0.000000000000000 ) );
#406 = DIRECTION( '', ( 0.000000000000000, -1.00000000000000, 0.000000000000000 ) );
#407 = DIRECTION( '', ( 0.000000000000000, 0.000000000000000, -1.00000000000000 ) );
#408 = CARTESIAN_POINT( '', ( 0.000000000000000, 0.000000000000000, 0.000000000000000 ) );
#409 = DIRECTION( '', ( 0.000000000000000, -1.00000000000000, 0.000000000000000 ) );
#410 = DIRECTION( '', ( 0.000000000000000, 0.000000000000000, -1.00000000000000 ) );
#411 = CARTESIAN_POINT( '', ( 0.000000000000000, 0.000000000000000, 0.000000000000000 ) );
#412 = DIRECTION( '', ( 0.000000000000000, -1.00000000000000, 0.000000000000000 ) );
#413 = DIRECTION( '', ( 0.000000000000000, 0.000000000000000, -1.00000000000000 ) );
#414 = CARTESIAN_POINT( '', ( 0.000000000000000, 0.000000000000000, 0.000000000000000 ) );
#415 = DIRECTION( '', ( 0.000000000000000, -1.00000000000000, 0.000000000000000 ) );
#416 = DIRECTION( '', ( 0.000000000000000, 0.000000000000000, -1.00000000000000 ) );
#417 = CARTESIAN_POINT( '', ( 0.000000000000000, 0.00180000000001000, 0.000000000000000 ) );
#418 = DIRECTION( '', ( 0.000000000000000, -1.00000000000000, 0.000000000000000 ) );
#419 = DIRECTION( '', ( 0.000000000000000, 0.000000000000000, -1.00000000000000 ) );
#420 = CARTESIAN_POINT( '', ( 0.000000000000000, 0.00180000000001000, 0.000000000000000 ) );
#421 = DIRECTION( '', ( 0.000000000000000, -1.00000000000000, 0.000000000000000 ) );
#422 = DIRECTION( '', ( 0.000000000000000, 0.000000000000000, -1.00000000000000 ) );
ENDSEC;
END-ISO-10303-21;
