ISO-10303-21;
HEADER;
FILE_DESCRIPTION(('STEP AP214'),'1');
FILE_NAME('cctmp_D4B0732F-A363-47DE-9B4E-9B51C14D32FB_2022_03_09_10_04_08_0240..stp','2022-03-09T09:04:08',('Praher Valves GmbH'),('CADClick - www.CADClick.com'),'Spatial InterOp 3D',' ','unknown authorization');
FILE_SCHEMA(('AUTOMOTIVE_DESIGN'));
ENDSEC;
DATA;
#1=MECHANICAL_DESIGN_GEOMETRIC_PRESENTATION_REPRESENTATION(' ',(#10,#11,#12,#13,#14,#15,#16,#17,#18,#19,#20,#21,#22,#23,#24,#25,#26,#27,#28,#29,#30),#6);
#2=PRODUCT_DEFINITION_CONTEXT('',#31,'design');
#3=APPLICATION_PROTOCOL_DEFINITION('INTERNATIONAL STANDARD','automotive_design',1994,#31);
#4=PRODUCT_CATEGORY_RELATIONSHIP('NONE','NONE',#32,#33);
#5=SHAPE_DEFINITION_REPRESENTATION(#34,#35);
#6= (GEOMETRIC_REPRESENTATION_CONTEXT(3)GLOBAL_UNCERTAINTY_ASSIGNED_CONTEXT((#38))GLOBAL_UNIT_ASSIGNED_CONTEXT((#40,#41,#42))REPRESENTATION_CONTEXT('NONE','WORKSPACE'));
#10=STYLED_ITEM('',(#44),#45);
#11=STYLED_ITEM('',(#46),#47);
#12=STYLED_ITEM('',(#48),#49);
#13=STYLED_ITEM('',(#50),#51);
#14=STYLED_ITEM('',(#52),#53);
#15=STYLED_ITEM('',(#54),#55);
#16=STYLED_ITEM('',(#56),#57);
#17=STYLED_ITEM('',(#58),#59);
#18=STYLED_ITEM('',(#60),#61);
#19=STYLED_ITEM('',(#62),#63);
#20=STYLED_ITEM('',(#64),#65);
#21=STYLED_ITEM('',(#66),#67);
#22=STYLED_ITEM('',(#68),#69);
#23=STYLED_ITEM('',(#70),#71);
#24=STYLED_ITEM('',(#72),#73);
#25=STYLED_ITEM('',(#74),#75);
#26=STYLED_ITEM('',(#76),#77);
#27=STYLED_ITEM('',(#78),#79);
#28=STYLED_ITEM('',(#80),#81);
#29=STYLED_ITEM('',(#82),#83);
#30=STYLED_ITEM('',(#84),#85);
#31=APPLICATION_CONTEXT(' ');
#32=PRODUCT_CATEGORY('part','NONE');
#33=PRODUCT_RELATED_PRODUCT_CATEGORY('detail',' ',(#86));
#34=PRODUCT_DEFINITION_SHAPE('NONE','NONE',#87);
#35=ADVANCED_BREP_SHAPE_REPRESENTATION('71299',(#85,#88),#6);
#38=UNCERTAINTY_MEASURE_WITH_UNIT(LENGTH_MEASURE(1.0E-006),#40,'','');
#40= (CONVERSION_BASED_UNIT('MILLIMETRE',#91)LENGTH_UNIT()NAMED_UNIT(#94));
#41= (NAMED_UNIT(#96)PLANE_ANGLE_UNIT()SI_UNIT($,.RADIAN.));
#42= (NAMED_UNIT(#96)SOLID_ANGLE_UNIT()SI_UNIT($,.STERADIAN.));
#44=PRESENTATION_STYLE_ASSIGNMENT((#102));
#45=ADVANCED_FACE('',(#103),#104,.T.);
#46=PRESENTATION_STYLE_ASSIGNMENT((#105));
#47=ADVANCED_FACE('',(#106),#107,.T.);
#48=PRESENTATION_STYLE_ASSIGNMENT((#108));
#49=ADVANCED_FACE('',(#109),#110,.T.);
#50=PRESENTATION_STYLE_ASSIGNMENT((#111));
#51=ADVANCED_FACE('',(#112),#113,.T.);
#52=PRESENTATION_STYLE_ASSIGNMENT((#114));
#53=ADVANCED_FACE('',(#115),#116,.T.);
#54=PRESENTATION_STYLE_ASSIGNMENT((#117));
#55=ADVANCED_FACE('',(#118),#119,.F.);
#56=PRESENTATION_STYLE_ASSIGNMENT((#120));
#57=ADVANCED_FACE('',(#121),#122,.F.);
#58=PRESENTATION_STYLE_ASSIGNMENT((#123));
#59=ADVANCED_FACE('',(#124),#125,.F.);
#60=PRESENTATION_STYLE_ASSIGNMENT((#126));
#61=ADVANCED_FACE('',(#127),#128,.F.);
#62=PRESENTATION_STYLE_ASSIGNMENT((#129));
#63=ADVANCED_FACE('',(#130),#131,.F.);
#64=PRESENTATION_STYLE_ASSIGNMENT((#132));
#65=ADVANCED_FACE('',(#133),#134,.F.);
#66=PRESENTATION_STYLE_ASSIGNMENT((#135));
#67=ADVANCED_FACE('',(#136),#137,.T.);
#68=PRESENTATION_STYLE_ASSIGNMENT((#138));
#69=ADVANCED_FACE('',(#139,#140),#141,.T.);
#70=PRESENTATION_STYLE_ASSIGNMENT((#142));
#71=ADVANCED_FACE('',(#143),#144,.T.);
#72=PRESENTATION_STYLE_ASSIGNMENT((#145));
#73=ADVANCED_FACE('',(#146,#147),#148,.T.);
#74=PRESENTATION_STYLE_ASSIGNMENT((#149));
#75=ADVANCED_FACE('',(#150),#151,.T.);
#76=PRESENTATION_STYLE_ASSIGNMENT((#152));
#77=ADVANCED_FACE('',(#153,#154),#155,.T.);
#78=PRESENTATION_STYLE_ASSIGNMENT((#156));
#79=ADVANCED_FACE('',(#157),#158,.T.);
#80=PRESENTATION_STYLE_ASSIGNMENT((#159));
#81=ADVANCED_FACE('',(#160,#161),#162,.T.);
#82=PRESENTATION_STYLE_ASSIGNMENT((#163));
#83=ADVANCED_FACE('',(#164),#165,.T.);
#84=PRESENTATION_STYLE_ASSIGNMENT((#166));
#85=MANIFOLD_SOLID_BREP('71299',#167);
#86=PRODUCT('71299','','PART--DESC',(#168));
#87=PRODUCT_DEFINITION('','NONE',#169,#2);
#88=AXIS2_PLACEMENT_3D('',#170,#171,#172);
#91=LENGTH_MEASURE_WITH_UNIT(LENGTH_MEASURE(1.0),#173);
#94=DIMENSIONAL_EXPONENTS(1.0,0.0,0.0,0.0,0.0,0.0,0.0);
#96=DIMENSIONAL_EXPONENTS(0.0,0.0,0.0,0.0,0.0,0.0,0.0);
#102=SURFACE_STYLE_USAGE(.BOTH.,#174);
#103=FACE_OUTER_BOUND('',#175,.T.);
#104=CYLINDRICAL_SURFACE('',#176,20.955);
#105=SURFACE_STYLE_USAGE(.BOTH.,#177);
#106=FACE_OUTER_BOUND('',#178,.T.);
#107=CONICAL_SURFACE('',#179,20.215,0.785398163397447);
#108=SURFACE_STYLE_USAGE(.BOTH.,#180);
#109=FACE_OUTER_BOUND('',#181,.T.);
#110=CYLINDRICAL_SURFACE('',#182,37.5);
#111=SURFACE_STYLE_USAGE(.BOTH.,#183);
#112=FACE_OUTER_BOUND('',#184,.T.);
#113=CYLINDRICAL_SURFACE('',#185,42.5);
#114=SURFACE_STYLE_USAGE(.BOTH.,#186);
#115=FACE_OUTER_BOUND('',#187,.T.);
#116=CONICAL_SURFACE('',#188,18.75,0.785398163397448);
#117=SURFACE_STYLE_USAGE(.BOTH.,#189);
#118=FACE_OUTER_BOUND('',#190,.T.);
#119=CYLINDRICAL_SURFACE('',#191,31.5);
#120=SURFACE_STYLE_USAGE(.BOTH.,#192);
#121=FACE_OUTER_BOUND('',#193,.T.);
#122=CONICAL_SURFACE('',#194,15.75,0.785398163397448);
#123=SURFACE_STYLE_USAGE(.BOTH.,#195);
#124=FACE_OUTER_BOUND('',#196,.T.);
#125=CYLINDRICAL_SURFACE('',#197,14.955);
#126=SURFACE_STYLE_USAGE(.BOTH.,#198);
#127=FACE_OUTER_BOUND('',#199,.T.);
#128=CYLINDRICAL_SURFACE('',#200,14.955);
#129=SURFACE_STYLE_USAGE(.BOTH.,#201);
#130=FACE_OUTER_BOUND('',#202,.T.);
#131=CONICAL_SURFACE('',#203,15.75,0.785398163397448);
#132=SURFACE_STYLE_USAGE(.BOTH.,#204);
#133=FACE_OUTER_BOUND('',#205,.T.);
#134=CYLINDRICAL_SURFACE('',#206,31.5);
#135=SURFACE_STYLE_USAGE(.BOTH.,#207);
#136=FACE_OUTER_BOUND('',#208,.T.);
#137=CONICAL_SURFACE('',#209,18.75,0.785398163397448);
#138=SURFACE_STYLE_USAGE(.BOTH.,#210);
#139=FACE_OUTER_BOUND('',#211,.T.);
#140=FACE_BOUND('',#212,.T.);
#141=PLANE('',#213);
#142=SURFACE_STYLE_USAGE(.BOTH.,#214);
#143=FACE_OUTER_BOUND('',#215,.T.);
#144=CYLINDRICAL_SURFACE('',#216,42.5);
#145=SURFACE_STYLE_USAGE(.BOTH.,#217);
#146=FACE_BOUND('',#218,.T.);
#147=FACE_OUTER_BOUND('',#219,.T.);
#148=PLANE('',#220);
#149=SURFACE_STYLE_USAGE(.BOTH.,#221);
#150=FACE_OUTER_BOUND('',#222,.T.);
#151=CYLINDRICAL_SURFACE('',#223,37.5);
#152=SURFACE_STYLE_USAGE(.BOTH.,#224);
#153=FACE_BOUND('',#225,.T.);
#154=FACE_OUTER_BOUND('',#226,.T.);
#155=PLANE('',#227);
#156=SURFACE_STYLE_USAGE(.BOTH.,#228);
#157=FACE_OUTER_BOUND('',#229,.T.);
#158=CONICAL_SURFACE('',#230,20.215,0.785398163397447);
#159=SURFACE_STYLE_USAGE(.BOTH.,#231);
#160=FACE_BOUND('',#232,.T.);
#161=FACE_OUTER_BOUND('',#233,.T.);
#162=PLANE('',#234);
#163=SURFACE_STYLE_USAGE(.BOTH.,#235);
#164=FACE_OUTER_BOUND('',#236,.T.);
#165=CYLINDRICAL_SURFACE('',#237,20.955);
#166=SURFACE_STYLE_USAGE(.BOTH.,#238);
#167=CLOSED_SHELL('',(#45,#47,#49,#51,#53,#55,#57,#59,#61,#63,#65,#67,#69,#71,#73,#75,#77,#79,#81,#83));
#168=PRODUCT_CONTEXT('',#31,'mechanical');
#169=PRODUCT_DEFINITION_FORMATION_WITH_SPECIFIED_SOURCE(' ','NONE',#86,.NOT_KNOWN.);
#170=CARTESIAN_POINT('',(0.0,0.0,0.0));
#171=DIRECTION('',(0.0,0.0,1.0));
#172=DIRECTION('',(1.0,0.0,0.0));
#173= (NAMED_UNIT(#94)LENGTH_UNIT()SI_UNIT(.MILLI.,.METRE.));
#174=SURFACE_SIDE_STYLE('',(#240));
#175=EDGE_LOOP('',(#241,#242,#243,#244));
#176=AXIS2_PLACEMENT_3D('',#245,#246,#247);
#177=SURFACE_SIDE_STYLE('',(#248));
#178=EDGE_LOOP('',(#249,#250,#251,#252));
#179=AXIS2_PLACEMENT_3D('',#253,#254,#255);
#180=SURFACE_SIDE_STYLE('',(#256));
#181=EDGE_LOOP('',(#257,#258,#259,#260));
#182=AXIS2_PLACEMENT_3D('',#261,#262,#263);
#183=SURFACE_SIDE_STYLE('',(#264));
#184=EDGE_LOOP('',(#265,#266,#267,#268));
#185=AXIS2_PLACEMENT_3D('',#269,#270,#271);
#186=SURFACE_SIDE_STYLE('',(#272));
#187=EDGE_LOOP('',(#273,#274,#275,#276));
#188=AXIS2_PLACEMENT_3D('',#277,#278,#279);
#189=SURFACE_SIDE_STYLE('',(#280));
#190=EDGE_LOOP('',(#281,#282,#283,#284));
#191=AXIS2_PLACEMENT_3D('',#285,#286,#287);
#192=SURFACE_SIDE_STYLE('',(#288));
#193=EDGE_LOOP('',(#289,#290,#291,#292));
#194=AXIS2_PLACEMENT_3D('',#293,#294,#295);
#195=SURFACE_SIDE_STYLE('',(#296));
#196=EDGE_LOOP('',(#297,#298,#299,#300));
#197=AXIS2_PLACEMENT_3D('',#301,#302,#303);
#198=SURFACE_SIDE_STYLE('',(#304));
#199=EDGE_LOOP('',(#305,#306,#307,#308));
#200=AXIS2_PLACEMENT_3D('',#309,#310,#311);
#201=SURFACE_SIDE_STYLE('',(#312));
#202=EDGE_LOOP('',(#313,#314,#315,#316));
#203=AXIS2_PLACEMENT_3D('',#317,#318,#319);
#204=SURFACE_SIDE_STYLE('',(#320));
#205=EDGE_LOOP('',(#321,#322,#323,#324));
#206=AXIS2_PLACEMENT_3D('',#325,#326,#327);
#207=SURFACE_SIDE_STYLE('',(#328));
#208=EDGE_LOOP('',(#329,#330,#331,#332));
#209=AXIS2_PLACEMENT_3D('',#333,#334,#335);
#210=SURFACE_SIDE_STYLE('',(#336));
#211=EDGE_LOOP('',(#337,#338));
#212=EDGE_LOOP('',(#339,#340));
#213=AXIS2_PLACEMENT_3D('',#341,#342,#343);
#214=SURFACE_SIDE_STYLE('',(#344));
#215=EDGE_LOOP('',(#345,#346,#347,#348));
#216=AXIS2_PLACEMENT_3D('',#349,#350,#351);
#217=SURFACE_SIDE_STYLE('',(#352));
#218=EDGE_LOOP('',(#353,#354));
#219=EDGE_LOOP('',(#355,#356));
#220=AXIS2_PLACEMENT_3D('',#357,#358,#359);
#221=SURFACE_SIDE_STYLE('',(#360));
#222=EDGE_LOOP('',(#361,#362,#363,#364));
#223=AXIS2_PLACEMENT_3D('',#365,#366,#367);
#224=SURFACE_SIDE_STYLE('',(#368));
#225=EDGE_LOOP('',(#369,#370));
#226=EDGE_LOOP('',(#371,#372));
#227=AXIS2_PLACEMENT_3D('',#373,#374,#375);
#228=SURFACE_SIDE_STYLE('',(#376));
#229=EDGE_LOOP('',(#377,#378,#379,#380));
#230=AXIS2_PLACEMENT_3D('',#381,#382,#383);
#231=SURFACE_SIDE_STYLE('',(#384));
#232=EDGE_LOOP('',(#385,#386));
#233=EDGE_LOOP('',(#387,#388));
#234=AXIS2_PLACEMENT_3D('',#389,#390,#391);
#235=SURFACE_SIDE_STYLE('',(#392));
#236=EDGE_LOOP('',(#393,#394,#395,#396));
#237=AXIS2_PLACEMENT_3D('',#397,#398,#399);
#238=SURFACE_SIDE_STYLE('',(#400));
#240=SURFACE_STYLE_FILL_AREA(#401);
#241=ORIENTED_EDGE('',*,*,#402,.F.);
#242=ORIENTED_EDGE('',*,*,#403,.T.);
#243=ORIENTED_EDGE('',*,*,#404,.F.);
#244=ORIENTED_EDGE('',*,*,#405,.F.);
#245=CARTESIAN_POINT('',(0.0,0.0,71.5325));
#246=DIRECTION('',(0.0,0.0,1.0));
#247=DIRECTION('',(-1.0,0.0,0.0));
#248=SURFACE_STYLE_FILL_AREA(#406);
#249=ORIENTED_EDGE('',*,*,#407,.F.);
#250=ORIENTED_EDGE('',*,*,#405,.T.);
#251=ORIENTED_EDGE('',*,*,#408,.F.);
#252=ORIENTED_EDGE('',*,*,#409,.F.);
#253=CARTESIAN_POINT('',(0.0,0.0,83.26));
#254=DIRECTION('',(-0.0,-0.0,-1.0));
#255=DIRECTION('',(-1.0,0.0,0.0));
#256=SURFACE_STYLE_FILL_AREA(#410);
#257=ORIENTED_EDGE('',*,*,#411,.F.);
#258=ORIENTED_EDGE('',*,*,#412,.F.);
#259=ORIENTED_EDGE('',*,*,#413,.F.);
#260=ORIENTED_EDGE('',*,*,#414,.F.);
#261=CARTESIAN_POINT('',(0.0,0.0,19.0));
#262=DIRECTION('',(0.0,0.0,1.0));
#263=DIRECTION('',(1.0,0.0,0.0));
#264=SURFACE_STYLE_FILL_AREA(#415);
#265=ORIENTED_EDGE('',*,*,#416,.F.);
#266=ORIENTED_EDGE('',*,*,#417,.F.);
#267=ORIENTED_EDGE('',*,*,#418,.F.);
#268=ORIENTED_EDGE('',*,*,#419,.F.);
#269=CARTESIAN_POINT('',(0.0,0.0,41.0));
#270=DIRECTION('',(0.0,0.0,1.0));
#271=DIRECTION('',(1.0,0.0,0.0));
#272=SURFACE_STYLE_FILL_AREA(#420);
#273=ORIENTED_EDGE('',*,*,#421,.F.);
#274=ORIENTED_EDGE('',*,*,#422,.F.);
#275=ORIENTED_EDGE('',*,*,#423,.F.);
#276=ORIENTED_EDGE('',*,*,#424,.F.);
#277=CARTESIAN_POINT('',(0.0,0.0,62.75));
#278=DIRECTION('',(-0.0,-0.0,-1.0));
#279=DIRECTION('',(1.0,0.0,0.0));
#280=SURFACE_STYLE_FILL_AREA(#425);
#281=ORIENTED_EDGE('',*,*,#426,.F.);
#282=ORIENTED_EDGE('',*,*,#427,.T.);
#283=ORIENTED_EDGE('',*,*,#428,.F.);
#284=ORIENTED_EDGE('',*,*,#429,.F.);
#285=CARTESIAN_POINT('',(0.0,0.0,20.5));
#286=DIRECTION('',(0.0,0.0,1.0));
#287=DIRECTION('',(1.0,0.0,0.0));
#288=SURFACE_STYLE_FILL_AREA(#430);
#289=ORIENTED_EDGE('',*,*,#431,.F.);
#290=ORIENTED_EDGE('',*,*,#432,.T.);
#291=ORIENTED_EDGE('',*,*,#433,.F.);
#292=ORIENTED_EDGE('',*,*,#427,.F.);
#293=CARTESIAN_POINT('',(0.0,0.0,56.75));
#294=DIRECTION('',(-0.0,-0.0,-1.0));
#295=DIRECTION('',(1.0,0.0,0.0));
#296=SURFACE_STYLE_FILL_AREA(#434);
#297=ORIENTED_EDGE('',*,*,#435,.F.);
#298=ORIENTED_EDGE('',*,*,#432,.F.);
#299=ORIENTED_EDGE('',*,*,#436,.F.);
#300=ORIENTED_EDGE('',*,*,#437,.F.);
#301=CARTESIAN_POINT('',(0.0,0.0,62.5));
#302=DIRECTION('',(0.0,0.0,-1.0));
#303=DIRECTION('',(-1.0,0.0,0.0));
#304=SURFACE_STYLE_FILL_AREA(#438);
#305=ORIENTED_EDGE('',*,*,#435,.T.);
#306=ORIENTED_EDGE('',*,*,#439,.F.);
#307=ORIENTED_EDGE('',*,*,#436,.T.);
#308=ORIENTED_EDGE('',*,*,#440,.F.);
#309=CARTESIAN_POINT('',(0.0,0.0,62.5));
#310=DIRECTION('',(0.0,0.0,-1.0));
#311=DIRECTION('',(-1.0,0.0,0.0));
#312=SURFACE_STYLE_FILL_AREA(#441);
#313=ORIENTED_EDGE('',*,*,#431,.T.);
#314=ORIENTED_EDGE('',*,*,#442,.F.);
#315=ORIENTED_EDGE('',*,*,#433,.T.);
#316=ORIENTED_EDGE('',*,*,#440,.T.);
#317=CARTESIAN_POINT('',(0.0,0.0,56.75));
#318=DIRECTION('',(-0.0,-0.0,-1.0));
#319=DIRECTION('',(1.0,0.0,0.0));
#320=SURFACE_STYLE_FILL_AREA(#443);
#321=ORIENTED_EDGE('',*,*,#426,.T.);
#322=ORIENTED_EDGE('',*,*,#444,.F.);
#323=ORIENTED_EDGE('',*,*,#428,.T.);
#324=ORIENTED_EDGE('',*,*,#442,.T.);
#325=CARTESIAN_POINT('',(0.0,0.0,20.5));
#326=DIRECTION('',(0.0,0.0,1.0));
#327=DIRECTION('',(1.0,0.0,0.0));
#328=SURFACE_STYLE_FILL_AREA(#445);
#329=ORIENTED_EDGE('',*,*,#421,.T.);
#330=ORIENTED_EDGE('',*,*,#403,.F.);
#331=ORIENTED_EDGE('',*,*,#423,.T.);
#332=ORIENTED_EDGE('',*,*,#446,.F.);
#333=CARTESIAN_POINT('',(0.0,0.0,62.75));
#334=DIRECTION('',(-0.0,-0.0,-1.0));
#335=DIRECTION('',(1.0,0.0,0.0));
#336=SURFACE_STYLE_FILL_AREA(#447);
#337=ORIENTED_EDGE('',*,*,#448,.T.);
#338=ORIENTED_EDGE('',*,*,#417,.T.);
#339=ORIENTED_EDGE('',*,*,#414,.T.);
#340=ORIENTED_EDGE('',*,*,#449,.T.);
#341=CARTESIAN_POINT('',(0.0,0.0,38.0));
#342=DIRECTION('',(0.0,0.0,-1.0));
#343=DIRECTION('',(-1.0,0.0,0.0));
#344=SURFACE_STYLE_FILL_AREA(#450);
#345=ORIENTED_EDGE('',*,*,#416,.T.);
#346=ORIENTED_EDGE('',*,*,#451,.F.);
#347=ORIENTED_EDGE('',*,*,#418,.T.);
#348=ORIENTED_EDGE('',*,*,#448,.F.);
#349=CARTESIAN_POINT('',(0.0,0.0,41.0));
#350=DIRECTION('',(0.0,0.0,1.0));
#351=DIRECTION('',(1.0,0.0,0.0));
#352=SURFACE_STYLE_FILL_AREA(#452);
#353=ORIENTED_EDGE('',*,*,#446,.T.);
#354=ORIENTED_EDGE('',*,*,#422,.T.);
#355=ORIENTED_EDGE('',*,*,#419,.T.);
#356=ORIENTED_EDGE('',*,*,#451,.T.);
#357=CARTESIAN_POINT('',(0.0,0.0,44.0));
#358=DIRECTION('',(0.0,0.0,1.0));
#359=DIRECTION('',(1.0,0.0,0.0));
#360=SURFACE_STYLE_FILL_AREA(#453);
#361=ORIENTED_EDGE('',*,*,#411,.T.);
#362=ORIENTED_EDGE('',*,*,#449,.F.);
#363=ORIENTED_EDGE('',*,*,#413,.T.);
#364=ORIENTED_EDGE('',*,*,#454,.F.);
#365=CARTESIAN_POINT('',(0.0,0.0,19.0));
#366=DIRECTION('',(0.0,0.0,1.0));
#367=DIRECTION('',(1.0,0.0,0.0));
#368=SURFACE_STYLE_FILL_AREA(#455);
#369=ORIENTED_EDGE('',*,*,#429,.T.);
#370=ORIENTED_EDGE('',*,*,#444,.T.);
#371=ORIENTED_EDGE('',*,*,#454,.T.);
#372=ORIENTED_EDGE('',*,*,#412,.T.);
#373=CARTESIAN_POINT('',(0.0,0.0,0.0));
#374=DIRECTION('',(0.0,0.0,-1.0));
#375=DIRECTION('',(-1.0,0.0,0.0));
#376=SURFACE_STYLE_FILL_AREA(#456);
#377=ORIENTED_EDGE('',*,*,#407,.T.);
#378=ORIENTED_EDGE('',*,*,#457,.F.);
#379=ORIENTED_EDGE('',*,*,#408,.T.);
#380=ORIENTED_EDGE('',*,*,#458,.T.);
#381=CARTESIAN_POINT('',(0.0,0.0,83.26));
#382=DIRECTION('',(-0.0,-0.0,-1.0));
#383=DIRECTION('',(-1.0,0.0,0.0));
#384=SURFACE_STYLE_FILL_AREA(#459);
#385=ORIENTED_EDGE('',*,*,#437,.T.);
#386=ORIENTED_EDGE('',*,*,#439,.T.);
#387=ORIENTED_EDGE('',*,*,#409,.T.);
#388=ORIENTED_EDGE('',*,*,#457,.T.);
#389=CARTESIAN_POINT('',(-9.7375,0.0,84.0));
#390=DIRECTION('',(0.0,0.0,1.0));
#391=DIRECTION('',(-1.0,0.0,0.0));
#392=SURFACE_STYLE_FILL_AREA(#460);
#393=ORIENTED_EDGE('',*,*,#402,.T.);
#394=ORIENTED_EDGE('',*,*,#458,.F.);
#395=ORIENTED_EDGE('',*,*,#404,.T.);
#396=ORIENTED_EDGE('',*,*,#424,.T.);
#397=CARTESIAN_POINT('',(0.0,0.0,71.5325));
#398=DIRECTION('',(0.0,0.0,1.0));
#399=DIRECTION('',(-1.0,0.0,0.0));
#400=SURFACE_STYLE_FILL_AREA(#461);
#401=FILL_AREA_STYLE('',(#462));
#402=EDGE_CURVE('',#463,#464,#465,.T.);
#403=EDGE_CURVE('',#463,#466,#467,.T.);
#404=EDGE_CURVE('',#468,#466,#469,.T.);
#405=EDGE_CURVE('',#464,#468,#470,.T.);
#406=FILL_AREA_STYLE('',(#471));
#407=EDGE_CURVE('',#464,#472,#473,.T.);
#408=EDGE_CURVE('',#474,#468,#475,.T.);
#409=EDGE_CURVE('',#472,#474,#476,.T.);
#410=FILL_AREA_STYLE('',(#477));
#411=EDGE_CURVE('',#478,#479,#480,.T.);
#412=EDGE_CURVE('',#481,#478,#482,.T.);
#413=EDGE_CURVE('',#483,#481,#484,.T.);
#414=EDGE_CURVE('',#479,#483,#485,.T.);
#415=FILL_AREA_STYLE('',(#486));
#416=EDGE_CURVE('',#487,#488,#489,.T.);
#417=EDGE_CURVE('',#490,#487,#491,.T.);
#418=EDGE_CURVE('',#492,#490,#493,.T.);
#419=EDGE_CURVE('',#488,#492,#494,.T.);
#420=FILL_AREA_STYLE('',(#495));
#421=EDGE_CURVE('',#496,#466,#497,.T.);
#422=EDGE_CURVE('',#498,#496,#499,.T.);
#423=EDGE_CURVE('',#463,#498,#500,.T.);
#424=EDGE_CURVE('',#466,#463,#501,.T.);
#425=FILL_AREA_STYLE('',(#502));
#426=EDGE_CURVE('',#503,#504,#505,.T.);
#427=EDGE_CURVE('',#503,#506,#507,.T.);
#428=EDGE_CURVE('',#508,#506,#509,.T.);
#429=EDGE_CURVE('',#504,#508,#510,.T.);
#430=FILL_AREA_STYLE('',(#511));
#431=EDGE_CURVE('',#512,#503,#513,.T.);
#432=EDGE_CURVE('',#512,#514,#515,.T.);
#433=EDGE_CURVE('',#506,#514,#516,.T.);
#434=FILL_AREA_STYLE('',(#517));
#435=EDGE_CURVE('',#514,#518,#519,.T.);
#436=EDGE_CURVE('',#520,#512,#521,.T.);
#437=EDGE_CURVE('',#518,#520,#522,.T.);
#438=FILL_AREA_STYLE('',(#523));
#439=EDGE_CURVE('',#520,#518,#524,.T.);
#440=EDGE_CURVE('',#514,#512,#525,.T.);
#441=FILL_AREA_STYLE('',(#526));
#442=EDGE_CURVE('',#506,#503,#527,.T.);
#443=FILL_AREA_STYLE('',(#528));
#444=EDGE_CURVE('',#508,#504,#529,.T.);
#445=FILL_AREA_STYLE('',(#530));
#446=EDGE_CURVE('',#496,#498,#531,.T.);
#447=FILL_AREA_STYLE('',(#532));
#448=EDGE_CURVE('',#487,#490,#533,.T.);
#449=EDGE_CURVE('',#483,#479,#534,.T.);
#450=FILL_AREA_STYLE('',(#535));
#451=EDGE_CURVE('',#492,#488,#536,.T.);
#452=FILL_AREA_STYLE('',(#537));
#453=FILL_AREA_STYLE('',(#538));
#454=EDGE_CURVE('',#478,#481,#539,.T.);
#455=FILL_AREA_STYLE('',(#540));
#456=FILL_AREA_STYLE('',(#541));
#457=EDGE_CURVE('',#474,#472,#542,.T.);
#458=EDGE_CURVE('',#468,#464,#543,.T.);
#459=FILL_AREA_STYLE('',(#544));
#460=FILL_AREA_STYLE('',(#545));
#461=FILL_AREA_STYLE('',(#546));
#462=FILL_AREA_STYLE_COLOUR('',#547);
#463=VERTEX_POINT('',#548);
#464=VERTEX_POINT('',#549);
#465=LINE('',#550,#551);
#466=VERTEX_POINT('',#552);
#467=CIRCLE('',#553,20.955);
#468=VERTEX_POINT('',#554);
#469=LINE('',#555,#556);
#470=CIRCLE('',#557,20.955);
#471=FILL_AREA_STYLE_COLOUR('',#558);
#472=VERTEX_POINT('',#559);
#473=LINE('',#560,#561);
#474=VERTEX_POINT('',#562);
#475=LINE('',#563,#564);
#476=CIRCLE('',#565,19.475);
#477=FILL_AREA_STYLE_COLOUR('',#566);
#478=VERTEX_POINT('',#567);
#479=VERTEX_POINT('',#568);
#480=LINE('',#569,#570);
#481=VERTEX_POINT('',#571);
#482=CIRCLE('',#572,37.5);
#483=VERTEX_POINT('',#573);
#484=LINE('',#574,#575);
#485=CIRCLE('',#576,37.5);
#486=FILL_AREA_STYLE_COLOUR('',#577);
#487=VERTEX_POINT('',#578);
#488=VERTEX_POINT('',#579);
#489=LINE('',#580,#581);
#490=VERTEX_POINT('',#582);
#491=CIRCLE('',#583,42.5);
#492=VERTEX_POINT('',#584);
#493=LINE('',#585,#586);
#494=CIRCLE('',#587,42.5);
#495=FILL_AREA_STYLE_COLOUR('',#588);
#496=VERTEX_POINT('',#589);
#497=LINE('',#590,#591);
#498=VERTEX_POINT('',#592);
#499=CIRCLE('',#593,37.5);
#500=LINE('',#594,#595);
#501=CIRCLE('',#596,20.955);
#502=FILL_AREA_STYLE_COLOUR('',#597);
#503=VERTEX_POINT('',#598);
#504=VERTEX_POINT('',#599);
#505=LINE('',#600,#601);
#506=VERTEX_POINT('',#602);
#507=CIRCLE('',#603,31.5);
#508=VERTEX_POINT('',#604);
#509=LINE('',#605,#606);
#510=CIRCLE('',#607,31.5);
#511=FILL_AREA_STYLE_COLOUR('',#608);
#512=VERTEX_POINT('',#609);
#513=LINE('',#610,#611);
#514=VERTEX_POINT('',#612);
#515=CIRCLE('',#613,14.955);
#516=LINE('',#614,#615);
#517=FILL_AREA_STYLE_COLOUR('',#616);
#518=VERTEX_POINT('',#617);
#519=LINE('',#618,#619);
#520=VERTEX_POINT('',#620);
#521=LINE('',#621,#622);
#522=CIRCLE('',#623,14.955);
#523=FILL_AREA_STYLE_COLOUR('',#624);
#524=CIRCLE('',#625,14.955);
#525=CIRCLE('',#626,14.955);
#526=FILL_AREA_STYLE_COLOUR('',#627);
#527=CIRCLE('',#628,31.5);
#528=FILL_AREA_STYLE_COLOUR('',#629);
#529=CIRCLE('',#630,31.5);
#530=FILL_AREA_STYLE_COLOUR('',#631);
#531=CIRCLE('',#632,37.5);
#532=FILL_AREA_STYLE_COLOUR('',#633);
#533=CIRCLE('',#634,42.5);
#534=CIRCLE('',#635,37.5);
#535=FILL_AREA_STYLE_COLOUR('',#636);
#536=CIRCLE('',#637,42.5);
#537=FILL_AREA_STYLE_COLOUR('',#638);
#538=FILL_AREA_STYLE_COLOUR('',#639);
#539=CIRCLE('',#640,37.5);
#540=FILL_AREA_STYLE_COLOUR('',#641);
#541=FILL_AREA_STYLE_COLOUR('',#642);
#542=CIRCLE('',#643,19.475);
#543=CIRCLE('',#644,20.955);
#544=FILL_AREA_STYLE_COLOUR('',#645);
#545=FILL_AREA_STYLE_COLOUR('',#646);
#546=FILL_AREA_STYLE_COLOUR('',#647);
#547=COLOUR_RGB('',1.0,1.0,0.501960813999176);
#548=CARTESIAN_POINT('',(-20.955,0.0,60.545));
#549=CARTESIAN_POINT('',(-20.955,0.0,82.52));
#550=CARTESIAN_POINT('',(-20.955,2.56624736761328E-015,71.5325));
#551=VECTOR('',#648,1.0);
#552=CARTESIAN_POINT('',(20.955,-2.56624736761328E-015,60.545));
#553=AXIS2_PLACEMENT_3D('',#649,#650,#651);
#554=CARTESIAN_POINT('',(20.955,-2.56624736761328E-015,82.52));
#555=CARTESIAN_POINT('',(20.955,-2.56624736761328E-015,71.5325));
#556=VECTOR('',#652,1.0);
#557=AXIS2_PLACEMENT_3D('',#653,#654,#655);
#558=COLOUR_RGB('',1.0,1.0,0.501960813999176);
#559=CARTESIAN_POINT('',(-19.475,0.0,84.0));
#560=CARTESIAN_POINT('',(-20.215,2.47562350447637E-015,83.26));
#561=VECTOR('',#656,1.0);
#562=CARTESIAN_POINT('',(19.475,-2.38499964133947E-015,84.0));
#563=CARTESIAN_POINT('',(20.215,-2.47562350447637E-015,83.26));
#564=VECTOR('',#657,1.0);
#565=AXIS2_PLACEMENT_3D('',#658,#659,#660);
#566=COLOUR_RGB('',0.250980406999588,0.290196090936661,0.329411774873734);
#567=CARTESIAN_POINT('',(37.5,0.0,0.0));
#568=CARTESIAN_POINT('',(37.5,0.0,38.0));
#569=CARTESIAN_POINT('',(37.5,-4.59242549680257E-015,19.0));
#570=VECTOR('',#661,1.0);
#571=CARTESIAN_POINT('',(-37.5,4.59242549680257E-015,0.0));
#572=AXIS2_PLACEMENT_3D('',#662,#663,#664);
#573=CARTESIAN_POINT('',(-37.5,4.59242549680257E-015,38.0));
#574=CARTESIAN_POINT('',(-37.5,4.59242549680257E-015,19.0));
#575=VECTOR('',#665,1.0);
#576=AXIS2_PLACEMENT_3D('',#666,#667,#668);
#577=COLOUR_RGB('',0.250980406999588,0.290196090936661,0.329411774873734);
#578=CARTESIAN_POINT('',(42.5,0.0,38.0));
#579=CARTESIAN_POINT('',(42.5,0.0,44.0));
#580=CARTESIAN_POINT('',(42.5,-5.20474889637625E-015,41.0));
#581=VECTOR('',#669,1.0);
#582=CARTESIAN_POINT('',(-42.5,5.20474889637625E-015,38.0));
#583=AXIS2_PLACEMENT_3D('',#670,#671,#672);
#584=CARTESIAN_POINT('',(-42.5,5.20474889637625E-015,44.0));
#585=CARTESIAN_POINT('',(-42.5,5.20474889637625E-015,41.0));
#586=VECTOR('',#673,1.0);
#587=AXIS2_PLACEMENT_3D('',#674,#675,#676);
#588=COLOUR_RGB('',0.250980406999588,0.290196090936661,0.329411774873734);
#589=CARTESIAN_POINT('',(37.5,0.0,44.0));
#590=CARTESIAN_POINT('',(18.75,-2.29621274840129E-015,62.75));
#591=VECTOR('',#677,1.0);
#592=CARTESIAN_POINT('',(-37.5,4.59242549680257E-015,44.0));
#593=AXIS2_PLACEMENT_3D('',#678,#679,#680);
#594=CARTESIAN_POINT('',(-18.75,2.29621274840129E-015,62.75));
#595=VECTOR('',#681,1.0);
#596=AXIS2_PLACEMENT_3D('',#682,#683,#684);
#597=COLOUR_RGB('',0.250980406999588,0.290196090936661,0.329411774873734);
#598=CARTESIAN_POINT('',(31.5,0.0,41.0));
#599=CARTESIAN_POINT('',(31.5,0.0,0.0));
#600=CARTESIAN_POINT('',(31.5,-3.85763741731416E-015,20.5));
#601=VECTOR('',#685,1.0);
#602=CARTESIAN_POINT('',(-31.5,3.85763741731416E-015,41.0));
#603=AXIS2_PLACEMENT_3D('',#686,#687,#688);
#604=CARTESIAN_POINT('',(-31.5,3.85763741731416E-015,0.0));
#605=CARTESIAN_POINT('',(-31.5,3.85763741731416E-015,20.5));
#606=VECTOR('',#689,1.0);
#607=AXIS2_PLACEMENT_3D('',#690,#691,#692);
#608=COLOUR_RGB('',0.250980406999588,0.290196090936661,0.329411774873734);
#609=CARTESIAN_POINT('',(14.955,1.83145928812487E-015,57.545));
#610=CARTESIAN_POINT('',(15.75,-1.92881870865708E-015,56.75));
#611=VECTOR('',#693,1.0);
#612=CARTESIAN_POINT('',(-14.955,-1.83145928812487E-015,57.545));
#613=AXIS2_PLACEMENT_3D('',#694,#695,#696);
#614=CARTESIAN_POINT('',(-15.75,1.92881870865708E-015,56.75));
#615=VECTOR('',#697,1.0);
#616=COLOUR_RGB('',0.250980406999588,0.290196090936661,0.329411774873734);
#617=CARTESIAN_POINT('',(-14.955,0.0,84.0));
#618=CARTESIAN_POINT('',(-14.955,-1.83145928812487E-015,62.5));
#619=VECTOR('',#698,1.0);
#620=CARTESIAN_POINT('',(14.955,1.83145928812487E-015,84.0));
#621=CARTESIAN_POINT('',(14.955,1.83145928812487E-015,62.5));
#622=VECTOR('',#699,1.0);
#623=AXIS2_PLACEMENT_3D('',#700,#701,#702);
#624=COLOUR_RGB('',0.250980406999588,0.290196090936661,0.329411774873734);
#625=AXIS2_PLACEMENT_3D('',#703,#704,#705);
#626=AXIS2_PLACEMENT_3D('',#706,#707,#708);
#627=COLOUR_RGB('',0.250980406999588,0.290196090936661,0.329411774873734);
#628=AXIS2_PLACEMENT_3D('',#709,#710,#711);
#629=COLOUR_RGB('',0.250980406999588,0.290196090936661,0.329411774873734);
#630=AXIS2_PLACEMENT_3D('',#712,#713,#714);
#631=COLOUR_RGB('',0.250980406999588,0.290196090936661,0.329411774873734);
#632=AXIS2_PLACEMENT_3D('',#715,#716,#717);
#633=COLOUR_RGB('',0.250980406999588,0.290196090936661,0.329411774873734);
#634=AXIS2_PLACEMENT_3D('',#718,#719,#720);
#635=AXIS2_PLACEMENT_3D('',#721,#722,#723);
#636=COLOUR_RGB('',0.250980406999588,0.290196090936661,0.329411774873734);
#637=AXIS2_PLACEMENT_3D('',#724,#725,#726);
#638=COLOUR_RGB('',0.250980406999588,0.290196090936661,0.329411774873734);
#639=COLOUR_RGB('',0.250980406999588,0.290196090936661,0.329411774873734);
#640=AXIS2_PLACEMENT_3D('',#727,#728,#729);
#641=COLOUR_RGB('',0.250980406999588,0.290196090936661,0.329411774873734);
#642=COLOUR_RGB('',1.0,1.0,0.501960813999176);
#643=AXIS2_PLACEMENT_3D('',#730,#731,#732);
#644=AXIS2_PLACEMENT_3D('',#733,#734,#735);
#645=COLOUR_RGB('',1.0,1.0,0.501960813999176);
#646=COLOUR_RGB('',1.0,1.0,0.501960813999176);
#647=COLOUR_RGB('',0.250980406999588,0.290196090936661,0.329411774873734);
#648=DIRECTION('',(0.0,0.0,1.0));
#649=CARTESIAN_POINT('',(0.0,0.0,60.545));
#650=DIRECTION('',(0.0,0.0,1.0));
#651=DIRECTION('',(-1.0,0.0,0.0));
#652=DIRECTION('',(-0.0,-0.0,-1.0));
#653=CARTESIAN_POINT('',(0.0,0.0,82.52));
#654=DIRECTION('',(0.0,0.0,1.0));
#655=DIRECTION('',(-1.0,0.0,0.0));
#656=DIRECTION('',(0.707106781186547,-8.65956056235492E-017,0.707106781186548));
#657=DIRECTION('',(0.707106781186547,-8.65956056235492E-017,-0.707106781186548));
#658=CARTESIAN_POINT('',(0.0,0.0,84.0));
#659=DIRECTION('',(0.0,0.0,1.0));
#660=DIRECTION('',(-1.0,0.0,0.0));
#661=DIRECTION('',(0.0,0.0,1.0));
#662=CARTESIAN_POINT('',(0.0,0.0,0.0));
#663=DIRECTION('',(0.0,0.0,-1.0));
#664=DIRECTION('',(1.0,0.0,0.0));
#665=DIRECTION('',(-0.0,-0.0,-1.0));
#666=CARTESIAN_POINT('',(0.0,0.0,38.0));
#667=DIRECTION('',(0.0,0.0,1.0));
#668=DIRECTION('',(1.0,0.0,0.0));
#669=DIRECTION('',(0.0,0.0,1.0));
#670=CARTESIAN_POINT('',(0.0,0.0,38.0));
#671=DIRECTION('',(0.0,0.0,-1.0));
#672=DIRECTION('',(1.0,0.0,0.0));
#673=DIRECTION('',(-0.0,-0.0,-1.0));
#674=CARTESIAN_POINT('',(0.0,0.0,44.0));
#675=DIRECTION('',(0.0,0.0,1.0));
#676=DIRECTION('',(1.0,0.0,0.0));
#677=DIRECTION('',(-0.707106781186547,8.65956056235493E-017,0.707106781186548));
#678=CARTESIAN_POINT('',(0.0,0.0,44.0));
#679=DIRECTION('',(0.0,0.0,-1.0));
#680=DIRECTION('',(1.0,0.0,0.0));
#681=DIRECTION('',(-0.707106781186547,8.65956056235493E-017,-0.707106781186548));
#682=CARTESIAN_POINT('',(0.0,0.0,60.545));
#683=DIRECTION('',(0.0,0.0,1.0));
#684=DIRECTION('',(-1.0,0.0,0.0));
#685=DIRECTION('',(-0.0,0.0,-1.0));
#686=CARTESIAN_POINT('',(0.0,0.0,41.0));
#687=DIRECTION('',(0.0,0.0,1.0));
#688=DIRECTION('',(1.0,0.0,0.0));
#689=DIRECTION('',(-0.0,0.0,1.0));
#690=CARTESIAN_POINT('',(0.0,0.0,0.0));
#691=DIRECTION('',(0.0,-0.0,1.0));
#692=DIRECTION('',(1.0,0.0,0.0));
#693=DIRECTION('',(0.707106781186548,-8.65956056235493E-017,-0.707106781186548));
#694=CARTESIAN_POINT('',(0.0,0.0,57.545));
#695=DIRECTION('',(0.0,-0.0,1.0));
#696=DIRECTION('',(-1.0,0.0,0.0));
#697=DIRECTION('',(0.707106781186548,-8.65956056235493E-017,0.707106781186548));
#698=DIRECTION('',(0.0,0.0,1.0));
#699=DIRECTION('',(0.0,0.0,-1.0));
#700=CARTESIAN_POINT('',(0.0,0.0,84.0));
#701=DIRECTION('',(-0.0,0.0,-1.0));
#702=DIRECTION('',(-1.0,0.0,0.0));
#703=CARTESIAN_POINT('',(0.0,0.0,84.0));
#704=DIRECTION('',(-0.0,0.0,-1.0));
#705=DIRECTION('',(-1.0,0.0,0.0));
#706=CARTESIAN_POINT('',(0.0,0.0,57.545));
#707=DIRECTION('',(0.0,-0.0,1.0));
#708=DIRECTION('',(-1.0,0.0,0.0));
#709=CARTESIAN_POINT('',(0.0,0.0,41.0));
#710=DIRECTION('',(0.0,0.0,1.0));
#711=DIRECTION('',(1.0,0.0,0.0));
#712=CARTESIAN_POINT('',(0.0,0.0,0.0));
#713=DIRECTION('',(0.0,-0.0,1.0));
#714=DIRECTION('',(1.0,0.0,0.0));
#715=CARTESIAN_POINT('',(0.0,0.0,44.0));
#716=DIRECTION('',(0.0,0.0,-1.0));
#717=DIRECTION('',(1.0,0.0,0.0));
#718=CARTESIAN_POINT('',(0.0,0.0,38.0));
#719=DIRECTION('',(0.0,0.0,-1.0));
#720=DIRECTION('',(1.0,0.0,0.0));
#721=CARTESIAN_POINT('',(0.0,0.0,38.0));
#722=DIRECTION('',(0.0,0.0,1.0));
#723=DIRECTION('',(1.0,0.0,0.0));
#724=CARTESIAN_POINT('',(0.0,0.0,44.0));
#725=DIRECTION('',(0.0,0.0,1.0));
#726=DIRECTION('',(1.0,0.0,0.0));
#727=CARTESIAN_POINT('',(0.0,0.0,0.0));
#728=DIRECTION('',(0.0,0.0,-1.0));
#729=DIRECTION('',(1.0,0.0,0.0));
#730=CARTESIAN_POINT('',(0.0,0.0,84.0));
#731=DIRECTION('',(0.0,0.0,1.0));
#732=DIRECTION('',(-1.0,0.0,0.0));
#733=CARTESIAN_POINT('',(0.0,0.0,82.52));
#734=DIRECTION('',(0.0,0.0,1.0));
#735=DIRECTION('',(-1.0,0.0,0.0));
ENDSEC;
END-ISO-10303-21;
