ISO-10303-21;
HEADER;
FILE_DESCRIPTION(('STEP AP214'),'1');
FILE_NAME('cctmp_FB44BB14-43EB-41AE-9CDC-9592C055904F_2022_02_21_15_18_32_0824..stp','2022-02-21T14:18:32',('Praher Valves GmbH'),('CADClick - www.CADClick.com'),'Spatial InterOp 3D',' ','unknown authorization');
FILE_SCHEMA(('AUTOMOTIVE_DESIGN'));
ENDSEC;
DATA;
#1=MECHANICAL_DESIGN_GEOMETRIC_PRESENTATION_REPRESENTATION(' ',(#10,#11,#12,#13,#14,#15,#16,#17,#18,#19,#20,#21,#22,#23,#24,#25,#26,#27,#28),#6);
#2=PRODUCT_DEFINITION_CONTEXT('',#29,'design');
#3=APPLICATION_PROTOCOL_DEFINITION('INTERNATIONAL STANDARD','automotive_design',1994,#29);
#4=PRODUCT_CATEGORY_RELATIONSHIP('NONE','NONE',#30,#31);
#5=SHAPE_DEFINITION_REPRESENTATION(#32,#33);
#6= (GEOMETRIC_REPRESENTATION_CONTEXT(3)GLOBAL_UNCERTAINTY_ASSIGNED_CONTEXT((#36))GLOBAL_UNIT_ASSIGNED_CONTEXT((#38,#39,#40))REPRESENTATION_CONTEXT('NONE','WORKSPACE'));
#10=STYLED_ITEM('',(#42),#43);
#11=STYLED_ITEM('',(#44),#45);
#12=STYLED_ITEM('',(#46),#47);
#13=STYLED_ITEM('',(#48),#49);
#14=STYLED_ITEM('',(#50),#51);
#15=STYLED_ITEM('',(#52),#53);
#16=STYLED_ITEM('',(#54),#55);
#17=STYLED_ITEM('',(#56),#57);
#18=STYLED_ITEM('',(#58),#59);
#19=STYLED_ITEM('',(#60),#61);
#20=STYLED_ITEM('',(#62),#63);
#21=STYLED_ITEM('',(#64),#65);
#22=STYLED_ITEM('',(#66),#67);
#23=STYLED_ITEM('',(#68),#69);
#24=STYLED_ITEM('',(#70),#71);
#25=STYLED_ITEM('',(#72),#73);
#26=STYLED_ITEM('',(#74),#75);
#27=STYLED_ITEM('',(#76),#77);
#28=STYLED_ITEM('',(#78),#79);
#29=APPLICATION_CONTEXT(' ');
#30=PRODUCT_CATEGORY('part','NONE');
#31=PRODUCT_RELATED_PRODUCT_CATEGORY('detail',' ',(#80));
#32=PRODUCT_DEFINITION_SHAPE('NONE','NONE',#81);
#33=ADVANCED_BREP_SHAPE_REPRESENTATION('71271',(#79,#82),#6);
#36=UNCERTAINTY_MEASURE_WITH_UNIT(LENGTH_MEASURE(1.0E-006),#38,'','');
#38= (CONVERSION_BASED_UNIT('MILLIMETRE',#85)LENGTH_UNIT()NAMED_UNIT(#88));
#39= (NAMED_UNIT(#90)PLANE_ANGLE_UNIT()SI_UNIT($,.RADIAN.));
#40= (NAMED_UNIT(#90)SOLID_ANGLE_UNIT()SI_UNIT($,.STERADIAN.));
#42=PRESENTATION_STYLE_ASSIGNMENT((#96));
#43=ADVANCED_FACE('',(#97),#98,.T.);
#44=PRESENTATION_STYLE_ASSIGNMENT((#99));
#45=ADVANCED_FACE('',(#100),#101,.T.);
#46=PRESENTATION_STYLE_ASSIGNMENT((#102));
#47=ADVANCED_FACE('',(#103),#104,.T.);
#48=PRESENTATION_STYLE_ASSIGNMENT((#105));
#49=ADVANCED_FACE('',(#106),#107,.F.);
#50=PRESENTATION_STYLE_ASSIGNMENT((#108));
#51=ADVANCED_FACE('',(#109),#110,.F.);
#52=PRESENTATION_STYLE_ASSIGNMENT((#111));
#53=ADVANCED_FACE('',(#112),#113,.F.);
#54=PRESENTATION_STYLE_ASSIGNMENT((#114));
#55=ADVANCED_FACE('',(#115),#116,.F.);
#56=PRESENTATION_STYLE_ASSIGNMENT((#117));
#57=ADVANCED_FACE('',(#118),#119,.F.);
#58=PRESENTATION_STYLE_ASSIGNMENT((#120));
#59=ADVANCED_FACE('',(#121),#122,.F.);
#60=PRESENTATION_STYLE_ASSIGNMENT((#123));
#61=ADVANCED_FACE('',(#124,#125),#126,.F.);
#62=PRESENTATION_STYLE_ASSIGNMENT((#127));
#63=ADVANCED_FACE('',(#128,#129),#130,.F.);
#64=PRESENTATION_STYLE_ASSIGNMENT((#131));
#65=ADVANCED_FACE('',(#132),#133,.F.);
#66=PRESENTATION_STYLE_ASSIGNMENT((#134));
#67=ADVANCED_FACE('',(#135),#136,.F.);
#68=PRESENTATION_STYLE_ASSIGNMENT((#137));
#69=ADVANCED_FACE('',(#138),#139,.T.);
#70=PRESENTATION_STYLE_ASSIGNMENT((#140));
#71=ADVANCED_FACE('',(#141,#142),#143,.T.);
#72=PRESENTATION_STYLE_ASSIGNMENT((#144));
#73=ADVANCED_FACE('',(#145),#146,.T.);
#74=PRESENTATION_STYLE_ASSIGNMENT((#147));
#75=ADVANCED_FACE('',(#148),#149,.T.);
#76=PRESENTATION_STYLE_ASSIGNMENT((#150));
#77=ADVANCED_FACE('',(#151,#152),#153,.T.);
#78=PRESENTATION_STYLE_ASSIGNMENT((#154));
#79=MANIFOLD_SOLID_BREP('71271',#155);
#80=PRODUCT('71271','','PART--DESC',(#156));
#81=PRODUCT_DEFINITION('','NONE',#157,#2);
#82=AXIS2_PLACEMENT_3D('',#158,#159,#160);
#85=LENGTH_MEASURE_WITH_UNIT(LENGTH_MEASURE(1.0),#161);
#88=DIMENSIONAL_EXPONENTS(1.0,0.0,0.0,0.0,0.0,0.0,0.0);
#90=DIMENSIONAL_EXPONENTS(0.0,0.0,0.0,0.0,0.0,0.0,0.0);
#96=SURFACE_STYLE_USAGE(.BOTH.,#162);
#97=FACE_OUTER_BOUND('',#163,.T.);
#98=CYLINDRICAL_SURFACE('',#164,38.0);
#99=SURFACE_STYLE_USAGE(.BOTH.,#165);
#100=FACE_OUTER_BOUND('',#166,.T.);
#101=CONICAL_SURFACE('',#167,19.0,0.982793723247936);
#102=SURFACE_STYLE_USAGE(.BOTH.,#168);
#103=FACE_OUTER_BOUND('',#169,.T.);
#104=CYLINDRICAL_SURFACE('',#170,31.5);
#105=SURFACE_STYLE_USAGE(.BOTH.,#171);
#106=FACE_OUTER_BOUND('',#172,.T.);
#107=CYLINDRICAL_SURFACE('',#173,28.32);
#108=SURFACE_STYLE_USAGE(.BOTH.,#174);
#109=FACE_OUTER_BOUND('',#175,.T.);
#110=CYLINDRICAL_SURFACE('',#176,28.33);
#111=SURFACE_STYLE_USAGE(.BOTH.,#177);
#112=FACE_OUTER_BOUND('',#178,.T.);
#113=CONICAL_SURFACE('',#179,14.165,0.982793723246515);
#114=SURFACE_STYLE_USAGE(.BOTH.,#180);
#115=FACE_OUTER_BOUND('',#181,.T.);
#116=CYLINDRICAL_SURFACE('',#182,25.0);
#117=SURFACE_STYLE_USAGE(.BOTH.,#183);
#118=FACE_OUTER_BOUND('',#184,.T.);
#119=CYLINDRICAL_SURFACE('',#185,25.0);
#120=SURFACE_STYLE_USAGE(.BOTH.,#186);
#121=FACE_OUTER_BOUND('',#187,.T.);
#122=CONICAL_SURFACE('',#188,14.165,0.982793723246515);
#123=SURFACE_STYLE_USAGE(.BOTH.,#189);
#124=FACE_BOUND('',#190,.T.);
#125=FACE_OUTER_BOUND('',#191,.T.);
#126=PLANE('',#192);
#127=SURFACE_STYLE_USAGE(.BOTH.,#193);
#128=FACE_BOUND('',#194,.T.);
#129=FACE_OUTER_BOUND('',#195,.T.);
#130=PLANE('',#196);
#131=SURFACE_STYLE_USAGE(.BOTH.,#197);
#132=FACE_OUTER_BOUND('',#198,.T.);
#133=CYLINDRICAL_SURFACE('',#199,28.33);
#134=SURFACE_STYLE_USAGE(.BOTH.,#200);
#135=FACE_OUTER_BOUND('',#201,.T.);
#136=CYLINDRICAL_SURFACE('',#202,28.32);
#137=SURFACE_STYLE_USAGE(.BOTH.,#203);
#138=FACE_OUTER_BOUND('',#204,.T.);
#139=CYLINDRICAL_SURFACE('',#205,31.5);
#140=SURFACE_STYLE_USAGE(.BOTH.,#206);
#141=FACE_BOUND('',#207,.T.);
#142=FACE_OUTER_BOUND('',#208,.T.);
#143=PLANE('',#209);
#144=SURFACE_STYLE_USAGE(.BOTH.,#210);
#145=FACE_OUTER_BOUND('',#211,.T.);
#146=CONICAL_SURFACE('',#212,19.0,0.982793723247936);
#147=SURFACE_STYLE_USAGE(.BOTH.,#213);
#148=FACE_OUTER_BOUND('',#214,.T.);
#149=CYLINDRICAL_SURFACE('',#215,38.0);
#150=SURFACE_STYLE_USAGE(.BOTH.,#216);
#151=FACE_BOUND('',#217,.T.);
#152=FACE_OUTER_BOUND('',#218,.T.);
#153=PLANE('',#219);
#154=SURFACE_STYLE_USAGE(.BOTH.,#220);
#155=CLOSED_SHELL('',(#43,#45,#47,#49,#51,#53,#55,#57,#59,#61,#63,#65,#67,#69,#71,#73,#75,#77));
#156=PRODUCT_CONTEXT('',#29,'mechanical');
#157=PRODUCT_DEFINITION_FORMATION_WITH_SPECIFIED_SOURCE(' ','NONE',#80,.NOT_KNOWN.);
#158=CARTESIAN_POINT('',(0.0,0.0,0.0));
#159=DIRECTION('',(0.0,0.0,1.0));
#160=DIRECTION('',(1.0,0.0,0.0));
#161= (NAMED_UNIT(#88)LENGTH_UNIT()SI_UNIT(.MILLI.,.METRE.));
#162=SURFACE_SIDE_STYLE('',(#222));
#163=EDGE_LOOP('',(#223,#224,#225,#226));
#164=AXIS2_PLACEMENT_3D('',#227,#228,#229);
#165=SURFACE_SIDE_STYLE('',(#230));
#166=EDGE_LOOP('',(#231,#232,#233,#234));
#167=AXIS2_PLACEMENT_3D('',#235,#236,#237);
#168=SURFACE_SIDE_STYLE('',(#238));
#169=EDGE_LOOP('',(#239,#240,#241,#242));
#170=AXIS2_PLACEMENT_3D('',#243,#244,#245);
#171=SURFACE_SIDE_STYLE('',(#246));
#172=EDGE_LOOP('',(#247,#248,#249,#250));
#173=AXIS2_PLACEMENT_3D('',#251,#252,#253);
#174=SURFACE_SIDE_STYLE('',(#254));
#175=EDGE_LOOP('',(#255,#256,#257,#258));
#176=AXIS2_PLACEMENT_3D('',#259,#260,#261);
#177=SURFACE_SIDE_STYLE('',(#262));
#178=EDGE_LOOP('',(#263,#264,#265,#266));
#179=AXIS2_PLACEMENT_3D('',#267,#268,#269);
#180=SURFACE_SIDE_STYLE('',(#270));
#181=EDGE_LOOP('',(#271,#272,#273,#274));
#182=AXIS2_PLACEMENT_3D('',#275,#276,#277);
#183=SURFACE_SIDE_STYLE('',(#278));
#184=EDGE_LOOP('',(#279,#280,#281,#282));
#185=AXIS2_PLACEMENT_3D('',#283,#284,#285);
#186=SURFACE_SIDE_STYLE('',(#286));
#187=EDGE_LOOP('',(#287,#288,#289,#290));
#188=AXIS2_PLACEMENT_3D('',#291,#292,#293);
#189=SURFACE_SIDE_STYLE('',(#294));
#190=EDGE_LOOP('',(#295,#296));
#191=EDGE_LOOP('',(#297,#298));
#192=AXIS2_PLACEMENT_3D('',#299,#300,#301);
#193=SURFACE_SIDE_STYLE('',(#302));
#194=EDGE_LOOP('',(#303,#304));
#195=EDGE_LOOP('',(#305,#306));
#196=AXIS2_PLACEMENT_3D('',#307,#308,#309);
#197=SURFACE_SIDE_STYLE('',(#310));
#198=EDGE_LOOP('',(#311,#312,#313,#314));
#199=AXIS2_PLACEMENT_3D('',#315,#316,#317);
#200=SURFACE_SIDE_STYLE('',(#318));
#201=EDGE_LOOP('',(#319,#320,#321,#322));
#202=AXIS2_PLACEMENT_3D('',#323,#324,#325);
#203=SURFACE_SIDE_STYLE('',(#326));
#204=EDGE_LOOP('',(#327,#328,#329,#330));
#205=AXIS2_PLACEMENT_3D('',#331,#332,#333);
#206=SURFACE_SIDE_STYLE('',(#334));
#207=EDGE_LOOP('',(#335,#336));
#208=EDGE_LOOP('',(#337,#338));
#209=AXIS2_PLACEMENT_3D('',#339,#340,#341);
#210=SURFACE_SIDE_STYLE('',(#342));
#211=EDGE_LOOP('',(#343,#344,#345,#346));
#212=AXIS2_PLACEMENT_3D('',#347,#348,#349);
#213=SURFACE_SIDE_STYLE('',(#350));
#214=EDGE_LOOP('',(#351,#352,#353,#354));
#215=AXIS2_PLACEMENT_3D('',#355,#356,#357);
#216=SURFACE_SIDE_STYLE('',(#358));
#217=EDGE_LOOP('',(#359,#360));
#218=EDGE_LOOP('',(#361,#362));
#219=AXIS2_PLACEMENT_3D('',#363,#364,#365);
#220=SURFACE_SIDE_STYLE('',(#366));
#222=SURFACE_STYLE_FILL_AREA(#367);
#223=ORIENTED_EDGE('',*,*,#368,.F.);
#224=ORIENTED_EDGE('',*,*,#369,.F.);
#225=ORIENTED_EDGE('',*,*,#370,.F.);
#226=ORIENTED_EDGE('',*,*,#371,.F.);
#227=CARTESIAN_POINT('',(0.0,0.0,69.75));
#228=DIRECTION('',(0.0,0.0,-1.0));
#229=DIRECTION('',(1.0,0.0,0.0));
#230=SURFACE_STYLE_FILL_AREA(#372);
#231=ORIENTED_EDGE('',*,*,#373,.F.);
#232=ORIENTED_EDGE('',*,*,#371,.T.);
#233=ORIENTED_EDGE('',*,*,#374,.F.);
#234=ORIENTED_EDGE('',*,*,#375,.T.);
#235=CARTESIAN_POINT('',(0.0,0.0,33.83333333335));
#236=DIRECTION('',(-0.0,-0.0,1.0));
#237=DIRECTION('',(1.0,0.0,0.0));
#238=SURFACE_STYLE_FILL_AREA(#376);
#239=ORIENTED_EDGE('',*,*,#377,.F.);
#240=ORIENTED_EDGE('',*,*,#375,.F.);
#241=ORIENTED_EDGE('',*,*,#378,.F.);
#242=ORIENTED_EDGE('',*,*,#379,.F.);
#243=CARTESIAN_POINT('',(0.0,0.0,23.25));
#244=DIRECTION('',(0.0,0.0,-1.0));
#245=DIRECTION('',(1.0,0.0,0.0));
#246=SURFACE_STYLE_FILL_AREA(#380);
#247=ORIENTED_EDGE('',*,*,#381,.F.);
#248=ORIENTED_EDGE('',*,*,#382,.T.);
#249=ORIENTED_EDGE('',*,*,#383,.F.);
#250=ORIENTED_EDGE('',*,*,#384,.T.);
#251=CARTESIAN_POINT('',(0.0,0.0,72.0));
#252=DIRECTION('',(0.0,0.0,-1.0));
#253=DIRECTION('',(1.0,0.0,0.0));
#254=SURFACE_STYLE_FILL_AREA(#385);
#255=ORIENTED_EDGE('',*,*,#386,.F.);
#256=ORIENTED_EDGE('',*,*,#387,.F.);
#257=ORIENTED_EDGE('',*,*,#388,.F.);
#258=ORIENTED_EDGE('',*,*,#389,.F.);
#259=CARTESIAN_POINT('',(0.0,0.0,73.0));
#260=DIRECTION('',(0.0,0.0,1.0));
#261=DIRECTION('',(1.0,0.0,0.0));
#262=SURFACE_STYLE_FILL_AREA(#390);
#263=ORIENTED_EDGE('',*,*,#391,.F.);
#264=ORIENTED_EDGE('',*,*,#392,.T.);
#265=ORIENTED_EDGE('',*,*,#393,.F.);
#266=ORIENTED_EDGE('',*,*,#394,.T.);
#267=CARTESIAN_POINT('',(0.0,0.0,41.55666666665));
#268=DIRECTION('',(-0.0,-0.0,1.0));
#269=DIRECTION('',(1.0,0.0,0.0));
#270=SURFACE_STYLE_FILL_AREA(#395);
#271=ORIENTED_EDGE('',*,*,#396,.F.);
#272=ORIENTED_EDGE('',*,*,#397,.F.);
#273=ORIENTED_EDGE('',*,*,#398,.F.);
#274=ORIENTED_EDGE('',*,*,#399,.F.);
#275=CARTESIAN_POINT('',(0.0,0.0,31.0));
#276=DIRECTION('',(0.0,0.0,1.0));
#277=DIRECTION('',(1.0,0.0,0.0));
#278=SURFACE_STYLE_FILL_AREA(#400);
#279=ORIENTED_EDGE('',*,*,#396,.T.);
#280=ORIENTED_EDGE('',*,*,#401,.F.);
#281=ORIENTED_EDGE('',*,*,#398,.T.);
#282=ORIENTED_EDGE('',*,*,#392,.F.);
#283=CARTESIAN_POINT('',(0.0,0.0,31.0));
#284=DIRECTION('',(0.0,0.0,1.0));
#285=DIRECTION('',(1.0,0.0,0.0));
#286=SURFACE_STYLE_FILL_AREA(#402);
#287=ORIENTED_EDGE('',*,*,#391,.T.);
#288=ORIENTED_EDGE('',*,*,#403,.T.);
#289=ORIENTED_EDGE('',*,*,#393,.T.);
#290=ORIENTED_EDGE('',*,*,#397,.T.);
#291=CARTESIAN_POINT('',(0.0,0.0,41.55666666665));
#292=DIRECTION('',(-0.0,-0.0,1.0));
#293=DIRECTION('',(1.0,0.0,0.0));
#294=SURFACE_STYLE_FILL_AREA(#404);
#295=ORIENTED_EDGE('',*,*,#382,.F.);
#296=ORIENTED_EDGE('',*,*,#405,.F.);
#297=ORIENTED_EDGE('',*,*,#403,.F.);
#298=ORIENTED_EDGE('',*,*,#394,.F.);
#299=CARTESIAN_POINT('',(0.0,0.0,51.0));
#300=DIRECTION('',(0.0,0.0,1.0));
#301=DIRECTION('',(-1.0,0.0,0.0));
#302=SURFACE_STYLE_FILL_AREA(#406);
#303=ORIENTED_EDGE('',*,*,#384,.F.);
#304=ORIENTED_EDGE('',*,*,#407,.F.);
#305=ORIENTED_EDGE('',*,*,#389,.T.);
#306=ORIENTED_EDGE('',*,*,#408,.T.);
#307=CARTESIAN_POINT('',(14.165,0.0,53.0));
#308=DIRECTION('',(0.0,0.0,-1.0));
#309=DIRECTION('',(-1.0,0.0,0.0));
#310=SURFACE_STYLE_FILL_AREA(#409);
#311=ORIENTED_EDGE('',*,*,#386,.T.);
#312=ORIENTED_EDGE('',*,*,#408,.F.);
#313=ORIENTED_EDGE('',*,*,#388,.T.);
#314=ORIENTED_EDGE('',*,*,#410,.F.);
#315=CARTESIAN_POINT('',(0.0,0.0,73.0));
#316=DIRECTION('',(0.0,0.0,1.0));
#317=DIRECTION('',(1.0,0.0,0.0));
#318=SURFACE_STYLE_FILL_AREA(#411);
#319=ORIENTED_EDGE('',*,*,#381,.T.);
#320=ORIENTED_EDGE('',*,*,#407,.T.);
#321=ORIENTED_EDGE('',*,*,#383,.T.);
#322=ORIENTED_EDGE('',*,*,#405,.T.);
#323=CARTESIAN_POINT('',(0.0,0.0,72.0));
#324=DIRECTION('',(0.0,0.0,-1.0));
#325=DIRECTION('',(1.0,0.0,0.0));
#326=SURFACE_STYLE_FILL_AREA(#412);
#327=ORIENTED_EDGE('',*,*,#377,.T.);
#328=ORIENTED_EDGE('',*,*,#413,.F.);
#329=ORIENTED_EDGE('',*,*,#378,.T.);
#330=ORIENTED_EDGE('',*,*,#414,.F.);
#331=CARTESIAN_POINT('',(0.0,0.0,23.25));
#332=DIRECTION('',(0.0,0.0,-1.0));
#333=DIRECTION('',(1.0,0.0,0.0));
#334=SURFACE_STYLE_FILL_AREA(#415);
#335=ORIENTED_EDGE('',*,*,#399,.T.);
#336=ORIENTED_EDGE('',*,*,#401,.T.);
#337=ORIENTED_EDGE('',*,*,#379,.T.);
#338=ORIENTED_EDGE('',*,*,#413,.T.);
#339=CARTESIAN_POINT('',(0.0,0.0,0.0));
#340=DIRECTION('',(0.0,0.0,-1.0));
#341=DIRECTION('',(1.0,0.0,0.0));
#342=SURFACE_STYLE_FILL_AREA(#416);
#343=ORIENTED_EDGE('',*,*,#373,.T.);
#344=ORIENTED_EDGE('',*,*,#414,.T.);
#345=ORIENTED_EDGE('',*,*,#374,.T.);
#346=ORIENTED_EDGE('',*,*,#417,.T.);
#347=CARTESIAN_POINT('',(0.0,0.0,33.83333333335));
#348=DIRECTION('',(-0.0,-0.0,1.0));
#349=DIRECTION('',(1.0,0.0,0.0));
#350=SURFACE_STYLE_FILL_AREA(#418);
#351=ORIENTED_EDGE('',*,*,#368,.T.);
#352=ORIENTED_EDGE('',*,*,#417,.F.);
#353=ORIENTED_EDGE('',*,*,#370,.T.);
#354=ORIENTED_EDGE('',*,*,#419,.F.);
#355=CARTESIAN_POINT('',(0.0,0.0,69.75));
#356=DIRECTION('',(0.0,0.0,-1.0));
#357=DIRECTION('',(1.0,0.0,0.0));
#358=SURFACE_STYLE_FILL_AREA(#420);
#359=ORIENTED_EDGE('',*,*,#410,.T.);
#360=ORIENTED_EDGE('',*,*,#387,.T.);
#361=ORIENTED_EDGE('',*,*,#419,.T.);
#362=ORIENTED_EDGE('',*,*,#369,.T.);
#363=CARTESIAN_POINT('',(0.0,0.0,93.0));
#364=DIRECTION('',(0.0,0.0,1.0));
#365=DIRECTION('',(-1.0,0.0,0.0));
#366=SURFACE_STYLE_FILL_AREA(#421);
#367=FILL_AREA_STYLE('',(#422));
#368=EDGE_CURVE('',#423,#424,#425,.T.);
#369=EDGE_CURVE('',#426,#423,#427,.T.);
#370=EDGE_CURVE('',#428,#426,#429,.T.);
#371=EDGE_CURVE('',#424,#428,#430,.T.);
#372=FILL_AREA_STYLE('',(#431));
#373=EDGE_CURVE('',#424,#432,#433,.T.);
#374=EDGE_CURVE('',#434,#428,#435,.T.);
#375=EDGE_CURVE('',#434,#432,#436,.T.);
#376=FILL_AREA_STYLE('',(#437));
#377=EDGE_CURVE('',#432,#438,#439,.T.);
#378=EDGE_CURVE('',#440,#434,#441,.T.);
#379=EDGE_CURVE('',#438,#440,#442,.T.);
#380=FILL_AREA_STYLE('',(#443));
#381=EDGE_CURVE('',#444,#445,#446,.T.);
#382=EDGE_CURVE('',#444,#447,#448,.T.);
#383=EDGE_CURVE('',#449,#447,#450,.T.);
#384=EDGE_CURVE('',#449,#445,#451,.T.);
#385=FILL_AREA_STYLE('',(#452));
#386=EDGE_CURVE('',#453,#454,#455,.T.);
#387=EDGE_CURVE('',#456,#453,#457,.T.);
#388=EDGE_CURVE('',#458,#456,#459,.T.);
#389=EDGE_CURVE('',#454,#458,#460,.T.);
#390=FILL_AREA_STYLE('',(#461));
#391=EDGE_CURVE('',#462,#463,#464,.T.);
#392=EDGE_CURVE('',#462,#465,#466,.T.);
#393=EDGE_CURVE('',#467,#465,#468,.T.);
#394=EDGE_CURVE('',#467,#463,#469,.T.);
#395=FILL_AREA_STYLE('',(#470));
#396=EDGE_CURVE('',#462,#471,#472,.T.);
#397=EDGE_CURVE('',#465,#462,#473,.T.);
#398=EDGE_CURVE('',#474,#465,#475,.T.);
#399=EDGE_CURVE('',#471,#474,#476,.T.);
#400=FILL_AREA_STYLE('',(#477));
#401=EDGE_CURVE('',#474,#471,#478,.T.);
#402=FILL_AREA_STYLE('',(#479));
#403=EDGE_CURVE('',#463,#467,#480,.T.);
#404=FILL_AREA_STYLE('',(#481));
#405=EDGE_CURVE('',#447,#444,#482,.T.);
#406=FILL_AREA_STYLE('',(#483));
#407=EDGE_CURVE('',#445,#449,#484,.T.);
#408=EDGE_CURVE('',#458,#454,#485,.T.);
#409=FILL_AREA_STYLE('',(#486));
#410=EDGE_CURVE('',#453,#456,#487,.T.);
#411=FILL_AREA_STYLE('',(#488));
#412=FILL_AREA_STYLE('',(#489));
#413=EDGE_CURVE('',#440,#438,#490,.T.);
#414=EDGE_CURVE('',#432,#434,#491,.T.);
#415=FILL_AREA_STYLE('',(#492));
#416=FILL_AREA_STYLE('',(#493));
#417=EDGE_CURVE('',#428,#424,#494,.T.);
#418=FILL_AREA_STYLE('',(#495));
#419=EDGE_CURVE('',#423,#426,#496,.T.);
#420=FILL_AREA_STYLE('',(#497));
#421=FILL_AREA_STYLE('',(#498));
#422=FILL_AREA_STYLE_COLOUR('',#499);
#423=VERTEX_POINT('',#500);
#424=VERTEX_POINT('',#501);
#425=LINE('',#502,#503);
#426=VERTEX_POINT('',#504);
#427=CIRCLE('',#505,38.0);
#428=VERTEX_POINT('',#506);
#429=LINE('',#507,#508);
#430=CIRCLE('',#509,38.0);
#431=FILL_AREA_STYLE_COLOUR('',#510);
#432=VERTEX_POINT('',#511);
#433=LINE('',#512,#513);
#434=VERTEX_POINT('',#514);
#435=LINE('',#515,#516);
#436=CIRCLE('',#517,31.5);
#437=FILL_AREA_STYLE_COLOUR('',#518);
#438=VERTEX_POINT('',#519);
#439=LINE('',#520,#521);
#440=VERTEX_POINT('',#522);
#441=LINE('',#523,#524);
#442=CIRCLE('',#525,31.5);
#443=FILL_AREA_STYLE_COLOUR('',#526);
#444=VERTEX_POINT('',#527);
#445=VERTEX_POINT('',#528);
#446=LINE('',#529,#530);
#447=VERTEX_POINT('',#531);
#448=CIRCLE('',#532,28.32);
#449=VERTEX_POINT('',#533);
#450=LINE('',#534,#535);
#451=CIRCLE('',#536,28.32);
#452=FILL_AREA_STYLE_COLOUR('',#537);
#453=VERTEX_POINT('',#538);
#454=VERTEX_POINT('',#539);
#455=LINE('',#540,#541);
#456=VERTEX_POINT('',#542);
#457=CIRCLE('',#543,28.33);
#458=VERTEX_POINT('',#544);
#459=LINE('',#545,#546);
#460=CIRCLE('',#547,28.33);
#461=FILL_AREA_STYLE_COLOUR('',#548);
#462=VERTEX_POINT('',#549);
#463=VERTEX_POINT('',#550);
#464=LINE('',#551,#552);
#465=VERTEX_POINT('',#553);
#466=CIRCLE('',#554,25.0);
#467=VERTEX_POINT('',#555);
#468=LINE('',#556,#557);
#469=CIRCLE('',#558,28.33);
#470=FILL_AREA_STYLE_COLOUR('',#559);
#471=VERTEX_POINT('',#560);
#472=LINE('',#561,#562);
#473=CIRCLE('',#563,25.0);
#474=VERTEX_POINT('',#564);
#475=LINE('',#565,#566);
#476=CIRCLE('',#567,25.0);
#477=FILL_AREA_STYLE_COLOUR('',#568);
#478=CIRCLE('',#569,25.0);
#479=FILL_AREA_STYLE_COLOUR('',#570);
#480=CIRCLE('',#571,28.33);
#481=FILL_AREA_STYLE_COLOUR('',#572);
#482=CIRCLE('',#573,28.32);
#483=FILL_AREA_STYLE_COLOUR('',#574);
#484=CIRCLE('',#575,28.32);
#485=CIRCLE('',#576,28.33);
#486=FILL_AREA_STYLE_COLOUR('',#577);
#487=CIRCLE('',#578,28.33);
#488=FILL_AREA_STYLE_COLOUR('',#579);
#489=FILL_AREA_STYLE_COLOUR('',#580);
#490=CIRCLE('',#581,31.5);
#491=CIRCLE('',#582,31.5);
#492=FILL_AREA_STYLE_COLOUR('',#583);
#493=FILL_AREA_STYLE_COLOUR('',#584);
#494=CIRCLE('',#585,38.0);
#495=FILL_AREA_STYLE_COLOUR('',#586);
#496=CIRCLE('',#587,38.0);
#497=FILL_AREA_STYLE_COLOUR('',#588);
#498=FILL_AREA_STYLE_COLOUR('',#589);
#499=COLOUR_RGB('',0.250980406999588,0.290196090936661,0.329411774873734);
#500=CARTESIAN_POINT('',(38.0,0.0,93.0));
#501=CARTESIAN_POINT('',(38.0,0.0,46.5));
#502=CARTESIAN_POINT('',(38.0,4.65365783675994E-015,69.75));
#503=VECTOR('',#590,1.0);
#504=CARTESIAN_POINT('',(-38.0,-4.65365783675994E-015,93.0));
#505=AXIS2_PLACEMENT_3D('',#591,#592,#593);
#506=CARTESIAN_POINT('',(-38.0,-4.65365783675994E-015,46.5));
#507=CARTESIAN_POINT('',(-38.0,-4.65365783675994E-015,69.75));
#508=VECTOR('',#594,1.0);
#509=AXIS2_PLACEMENT_3D('',#595,#596,#597);
#510=COLOUR_RGB('',0.250980406999588,0.290196090936661,0.329411774873734);
#511=CARTESIAN_POINT('',(31.5,3.85763741731416E-015,42.1666666666724));
#512=CARTESIAN_POINT('',(19.0,2.32682891837997E-015,33.83333333335));
#513=VECTOR('',#598,1.0);
#514=CARTESIAN_POINT('',(-31.5,-3.85763741731416E-015,42.1666666666724));
#515=CARTESIAN_POINT('',(-19.0,-2.32682891837997E-015,33.83333333335));
#516=VECTOR('',#599,1.0);
#517=AXIS2_PLACEMENT_3D('',#600,#601,#602);
#518=COLOUR_RGB('',0.250980406999588,0.290196090936661,0.329411774873734);
#519=CARTESIAN_POINT('',(31.5,0.0,0.0));
#520=CARTESIAN_POINT('',(31.5,3.85763741731416E-015,23.25));
#521=VECTOR('',#603,1.0);
#522=CARTESIAN_POINT('',(-31.5,-3.85763741731416E-015,0.0));
#523=CARTESIAN_POINT('',(-31.5,-3.85763741731416E-015,23.25));
#524=VECTOR('',#604,1.0);
#525=AXIS2_PLACEMENT_3D('',#605,#606,#607);
#526=COLOUR_RGB('',0.250980406999588,0.290196090936661,0.329411774873734);
#527=CARTESIAN_POINT('',(28.32,0.0,51.0));
#528=CARTESIAN_POINT('',(28.32,3.4681997351853E-015,53.0));
#529=CARTESIAN_POINT('',(28.32,3.4681997351853E-015,52.0));
#530=VECTOR('',#608,1.0);
#531=CARTESIAN_POINT('',(-28.32,-3.4681997351853E-015,51.0));
#532=AXIS2_PLACEMENT_3D('',#609,#610,#611);
#533=CARTESIAN_POINT('',(-28.32,-3.4681997351853E-015,53.0));
#534=CARTESIAN_POINT('',(-28.32,-3.4681997351853E-015,52.0));
#535=VECTOR('',#612,1.0);
#536=AXIS2_PLACEMENT_3D('',#613,#614,#615);
#537=COLOUR_RGB('',1.0,1.0,0.501960813999176);
#538=CARTESIAN_POINT('',(28.33,0.0,93.0));
#539=CARTESIAN_POINT('',(28.33,0.0,53.0));
#540=CARTESIAN_POINT('',(28.33,-3.46942438198445E-015,73.0));
#541=VECTOR('',#616,1.0);
#542=CARTESIAN_POINT('',(-28.33,3.46942438198445E-015,93.0));
#543=AXIS2_PLACEMENT_3D('',#617,#618,#619);
#544=CARTESIAN_POINT('',(-28.33,3.46942438198445E-015,53.0));
#545=CARTESIAN_POINT('',(-28.33,3.46942438198445E-015,73.0));
#546=VECTOR('',#620,1.0);
#547=AXIS2_PLACEMENT_3D('',#621,#622,#623);
#548=COLOUR_RGB('',0.250980406999588,0.290196090936661,0.329411774873734);
#549=CARTESIAN_POINT('',(25.0,-3.06161699786838E-015,48.7799999999961));
#550=CARTESIAN_POINT('',(28.33,0.0,51.0));
#551=CARTESIAN_POINT('',(14.165,1.73471219099223E-015,41.55666666665));
#552=VECTOR('',#624,1.0);
#553=CARTESIAN_POINT('',(-25.0,3.06161699786838E-015,48.7799999999961));
#554=AXIS2_PLACEMENT_3D('',#625,#626,#627);
#555=CARTESIAN_POINT('',(-28.33,-3.46942438198445E-015,51.0));
#556=CARTESIAN_POINT('',(-14.165,-1.73471219099223E-015,41.55666666665));
#557=VECTOR('',#628,1.0);
#558=AXIS2_PLACEMENT_3D('',#629,#630,#631);
#559=COLOUR_RGB('',0.250980406999588,0.290196090936661,0.329411774873734);
#560=CARTESIAN_POINT('',(25.0,0.0,0.0));
#561=CARTESIAN_POINT('',(25.0,-3.06161699786838E-015,31.0));
#562=VECTOR('',#632,1.0);
#563=AXIS2_PLACEMENT_3D('',#633,#634,#635);
#564=CARTESIAN_POINT('',(-25.0,3.06161699786838E-015,0.0));
#565=CARTESIAN_POINT('',(-25.0,3.06161699786838E-015,31.0));
#566=VECTOR('',#636,1.0);
#567=AXIS2_PLACEMENT_3D('',#637,#638,#639);
#568=COLOUR_RGB('',0.250980406999588,0.290196090936661,0.329411774873734);
#569=AXIS2_PLACEMENT_3D('',#640,#641,#642);
#570=COLOUR_RGB('',0.250980406999588,0.290196090936661,0.329411774873734);
#571=AXIS2_PLACEMENT_3D('',#643,#644,#645);
#572=COLOUR_RGB('',0.250980406999588,0.290196090936661,0.329411774873734);
#573=AXIS2_PLACEMENT_3D('',#646,#647,#648);
#574=COLOUR_RGB('',1.0,1.0,0.501960813999176);
#575=AXIS2_PLACEMENT_3D('',#649,#650,#651);
#576=AXIS2_PLACEMENT_3D('',#652,#653,#654);
#577=COLOUR_RGB('',1.0,1.0,0.501960813999176);
#578=AXIS2_PLACEMENT_3D('',#655,#656,#657);
#579=COLOUR_RGB('',0.250980406999588,0.290196090936661,0.329411774873734);
#580=COLOUR_RGB('',0.250980406999588,0.290196090936661,0.329411774873734);
#581=AXIS2_PLACEMENT_3D('',#658,#659,#660);
#582=AXIS2_PLACEMENT_3D('',#661,#662,#663);
#583=COLOUR_RGB('',0.250980406999588,0.290196090936661,0.329411774873734);
#584=COLOUR_RGB('',0.250980406999588,0.290196090936661,0.329411774873734);
#585=AXIS2_PLACEMENT_3D('',#664,#665,#666);
#586=COLOUR_RGB('',0.250980406999588,0.290196090936661,0.329411774873734);
#587=AXIS2_PLACEMENT_3D('',#667,#668,#669);
#588=COLOUR_RGB('',0.250980406999588,0.290196090936661,0.329411774873734);
#589=COLOUR_RGB('',0.250980406999588,0.290196090936661,0.329411774873734);
#590=DIRECTION('',(0.0,0.0,-1.0));
#591=CARTESIAN_POINT('',(0.0,0.0,93.0));
#592=DIRECTION('',(0.0,0.0,1.0));
#593=DIRECTION('',(1.0,0.0,0.0));
#594=DIRECTION('',(-0.0,-0.0,1.0));
#595=CARTESIAN_POINT('',(0.0,0.0,46.5));
#596=DIRECTION('',(0.0,0.0,-1.0));
#597=DIRECTION('',(1.0,0.0,0.0));
#598=DIRECTION('',(-0.83205029433818,-1.01896772969087E-016,-0.554700196224724));
#599=DIRECTION('',(-0.83205029433818,-1.01896772969087E-016,0.554700196224724));
#600=CARTESIAN_POINT('',(0.0,0.0,42.1666666666724));
#601=DIRECTION('',(0.0,-0.0,1.0));
#602=DIRECTION('',(1.0,0.0,0.0));
#603=DIRECTION('',(0.0,0.0,-1.0));
#604=DIRECTION('',(-0.0,-0.0,1.0));
#605=CARTESIAN_POINT('',(0.0,0.0,0.0));
#606=DIRECTION('',(0.0,0.0,-1.0));
#607=DIRECTION('',(1.0,0.0,0.0));
#608=DIRECTION('',(-0.0,-0.0,1.0));
#609=CARTESIAN_POINT('',(0.0,0.0,51.0));
#610=DIRECTION('',(0.0,0.0,-1.0));
#611=DIRECTION('',(1.0,0.0,0.0));
#612=DIRECTION('',(-0.0,-0.0,-1.0));
#613=CARTESIAN_POINT('',(0.0,0.0,53.0));
#614=DIRECTION('',(0.0,-0.0,1.0));
#615=DIRECTION('',(1.0,0.0,0.0));
#616=DIRECTION('',(-0.0,0.0,-1.0));
#617=CARTESIAN_POINT('',(0.0,0.0,93.0));
#618=DIRECTION('',(0.0,0.0,-1.0));
#619=DIRECTION('',(1.0,0.0,0.0));
#620=DIRECTION('',(-0.0,0.0,1.0));
#621=CARTESIAN_POINT('',(0.0,0.0,53.0));
#622=DIRECTION('',(0.0,0.0,1.0));
#623=DIRECTION('',(1.0,0.0,0.0));
#624=DIRECTION('',(0.832050294337392,1.0189677296899E-016,0.554700196225907));
#625=CARTESIAN_POINT('',(0.0,0.0,48.7799999999961));
#626=DIRECTION('',(0.0,0.0,-1.0));
#627=DIRECTION('',(1.0,0.0,0.0));
#628=DIRECTION('',(0.832050294337392,1.0189677296899E-016,-0.554700196225907));
#629=CARTESIAN_POINT('',(0.0,0.0,51.0));
#630=DIRECTION('',(0.0,0.0,1.0));
#631=DIRECTION('',(1.0,0.0,0.0));
#632=DIRECTION('',(-0.0,0.0,-1.0));
#633=CARTESIAN_POINT('',(0.0,0.0,48.7799999999961));
#634=DIRECTION('',(0.0,0.0,-1.0));
#635=DIRECTION('',(1.0,0.0,0.0));
#636=DIRECTION('',(-0.0,0.0,1.0));
#637=CARTESIAN_POINT('',(0.0,0.0,0.0));
#638=DIRECTION('',(0.0,-0.0,1.0));
#639=DIRECTION('',(1.0,0.0,0.0));
#640=CARTESIAN_POINT('',(0.0,0.0,0.0));
#641=DIRECTION('',(0.0,-0.0,1.0));
#642=DIRECTION('',(1.0,0.0,0.0));
#643=CARTESIAN_POINT('',(0.0,0.0,51.0));
#644=DIRECTION('',(0.0,0.0,1.0));
#645=DIRECTION('',(1.0,0.0,0.0));
#646=CARTESIAN_POINT('',(0.0,0.0,51.0));
#647=DIRECTION('',(0.0,0.0,-1.0));
#648=DIRECTION('',(1.0,0.0,0.0));
#649=CARTESIAN_POINT('',(0.0,0.0,53.0));
#650=DIRECTION('',(0.0,-0.0,1.0));
#651=DIRECTION('',(1.0,0.0,0.0));
#652=CARTESIAN_POINT('',(0.0,0.0,53.0));
#653=DIRECTION('',(0.0,0.0,1.0));
#654=DIRECTION('',(1.0,0.0,0.0));
#655=CARTESIAN_POINT('',(0.0,0.0,93.0));
#656=DIRECTION('',(0.0,0.0,-1.0));
#657=DIRECTION('',(1.0,0.0,0.0));
#658=CARTESIAN_POINT('',(0.0,0.0,0.0));
#659=DIRECTION('',(0.0,0.0,-1.0));
#660=DIRECTION('',(1.0,0.0,0.0));
#661=CARTESIAN_POINT('',(0.0,0.0,42.1666666666724));
#662=DIRECTION('',(0.0,-0.0,1.0));
#663=DIRECTION('',(1.0,0.0,0.0));
#664=CARTESIAN_POINT('',(0.0,0.0,46.5));
#665=DIRECTION('',(0.0,0.0,-1.0));
#666=DIRECTION('',(1.0,0.0,0.0));
#667=CARTESIAN_POINT('',(0.0,0.0,93.0));
#668=DIRECTION('',(0.0,0.0,1.0));
#669=DIRECTION('',(1.0,0.0,0.0));
ENDSEC;
END-ISO-10303-21;
