ISO-10303-21;
HEADER;
FILE_DESCRIPTION(('STEP AP214'),'1');
FILE_NAME('cctmp_554D7B30-7844-4C61-B305-8F645F69C160_2022_03_09_10_15_29_0143..stp','2022-03-09T09:15:29',('Praher Valves GmbH'),('CADClick - www.CADClick.com'),'Spatial InterOp 3D',' ','unknown authorization');
FILE_SCHEMA(('AUTOMOTIVE_DESIGN'));
ENDSEC;
DATA;
#1=MECHANICAL_DESIGN_GEOMETRIC_PRESENTATION_REPRESENTATION(' ',(#10,#11,#12,#13,#14,#15,#16,#17,#18,#19,#20,#21,#22,#23,#24,#25,#26,#27),#6);
#2=PRODUCT_DEFINITION_CONTEXT('',#28,'design');
#3=APPLICATION_PROTOCOL_DEFINITION('INTERNATIONAL STANDARD','automotive_design',1994,#28);
#4=PRODUCT_CATEGORY_RELATIONSHIP('NONE','NONE',#29,#30);
#5=SHAPE_DEFINITION_REPRESENTATION(#31,#32);
#6= (GEOMETRIC_REPRESENTATION_CONTEXT(3)GLOBAL_UNCERTAINTY_ASSIGNED_CONTEXT((#35))GLOBAL_UNIT_ASSIGNED_CONTEXT((#37,#38,#39))REPRESENTATION_CONTEXT('NONE','WORKSPACE'));
#10=STYLED_ITEM('',(#41),#42);
#11=STYLED_ITEM('',(#43),#44);
#12=STYLED_ITEM('',(#45),#46);
#13=STYLED_ITEM('',(#47),#48);
#14=STYLED_ITEM('',(#49),#50);
#15=STYLED_ITEM('',(#51),#52);
#16=STYLED_ITEM('',(#53),#54);
#17=STYLED_ITEM('',(#55),#56);
#18=STYLED_ITEM('',(#57),#58);
#19=STYLED_ITEM('',(#59),#60);
#20=STYLED_ITEM('',(#61),#62);
#21=STYLED_ITEM('',(#63),#64);
#22=STYLED_ITEM('',(#65),#66);
#23=STYLED_ITEM('',(#67),#68);
#24=STYLED_ITEM('',(#69),#70);
#25=STYLED_ITEM('',(#71),#72);
#26=STYLED_ITEM('',(#73),#74);
#27=STYLED_ITEM('',(#75),#76);
#28=APPLICATION_CONTEXT(' ');
#29=PRODUCT_CATEGORY('part','NONE');
#30=PRODUCT_RELATED_PRODUCT_CATEGORY('detail',' ',(#77));
#31=PRODUCT_DEFINITION_SHAPE('NONE','NONE',#78);
#32=ADVANCED_BREP_SHAPE_REPRESENTATION('71302',(#76,#79),#6);
#35=UNCERTAINTY_MEASURE_WITH_UNIT(LENGTH_MEASURE(1.0E-006),#37,'','');
#37= (CONVERSION_BASED_UNIT('MILLIMETRE',#82)LENGTH_UNIT()NAMED_UNIT(#85));
#38= (NAMED_UNIT(#87)PLANE_ANGLE_UNIT()SI_UNIT($,.RADIAN.));
#39= (NAMED_UNIT(#87)SOLID_ANGLE_UNIT()SI_UNIT($,.STERADIAN.));
#41=PRESENTATION_STYLE_ASSIGNMENT((#93));
#42=ADVANCED_FACE('',(#94),#95,.T.);
#43=PRESENTATION_STYLE_ASSIGNMENT((#96));
#44=ADVANCED_FACE('',(#97),#98,.T.);
#45=PRESENTATION_STYLE_ASSIGNMENT((#99));
#46=ADVANCED_FACE('',(#100),#101,.T.);
#47=PRESENTATION_STYLE_ASSIGNMENT((#102));
#48=ADVANCED_FACE('',(#103),#104,.T.);
#49=PRESENTATION_STYLE_ASSIGNMENT((#105));
#50=ADVANCED_FACE('',(#106),#107,.F.);
#51=PRESENTATION_STYLE_ASSIGNMENT((#108));
#52=ADVANCED_FACE('',(#109),#110,.F.);
#53=PRESENTATION_STYLE_ASSIGNMENT((#111));
#54=ADVANCED_FACE('',(#112),#113,.F.);
#55=PRESENTATION_STYLE_ASSIGNMENT((#114));
#56=ADVANCED_FACE('',(#115,#116),#117,.F.);
#57=PRESENTATION_STYLE_ASSIGNMENT((#118));
#58=ADVANCED_FACE('',(#119),#120,.F.);
#59=PRESENTATION_STYLE_ASSIGNMENT((#121));
#60=ADVANCED_FACE('',(#122),#123,.T.);
#61=PRESENTATION_STYLE_ASSIGNMENT((#124));
#62=ADVANCED_FACE('',(#125),#126,.T.);
#63=PRESENTATION_STYLE_ASSIGNMENT((#127));
#64=ADVANCED_FACE('',(#128,#129),#130,.T.);
#65=PRESENTATION_STYLE_ASSIGNMENT((#131));
#66=ADVANCED_FACE('',(#132,#133),#134,.T.);
#67=PRESENTATION_STYLE_ASSIGNMENT((#135));
#68=ADVANCED_FACE('',(#136),#137,.T.);
#69=PRESENTATION_STYLE_ASSIGNMENT((#138));
#70=ADVANCED_FACE('',(#139,#140),#141,.T.);
#71=PRESENTATION_STYLE_ASSIGNMENT((#142));
#72=ADVANCED_FACE('',(#143),#144,.T.);
#73=PRESENTATION_STYLE_ASSIGNMENT((#145));
#74=ADVANCED_FACE('',(#146,#147),#148,.T.);
#75=PRESENTATION_STYLE_ASSIGNMENT((#149));
#76=MANIFOLD_SOLID_BREP('71302',#150);
#77=PRODUCT('71302','','PART--DESC',(#151));
#78=PRODUCT_DEFINITION('','NONE',#152,#2);
#79=AXIS2_PLACEMENT_3D('',#153,#154,#155);
#82=LENGTH_MEASURE_WITH_UNIT(LENGTH_MEASURE(1.0),#156);
#85=DIMENSIONAL_EXPONENTS(1.0,0.0,0.0,0.0,0.0,0.0,0.0);
#87=DIMENSIONAL_EXPONENTS(0.0,0.0,0.0,0.0,0.0,0.0,0.0);
#93=SURFACE_STYLE_USAGE(.BOTH.,#157);
#94=FACE_OUTER_BOUND('',#158,.T.);
#95=CYLINDRICAL_SURFACE('',#159,37.5);
#96=SURFACE_STYLE_USAGE(.BOTH.,#160);
#97=FACE_OUTER_BOUND('',#161,.T.);
#98=CYLINDRICAL_SURFACE('',#162,42.5);
#99=SURFACE_STYLE_USAGE(.BOTH.,#163);
#100=FACE_OUTER_BOUND('',#164,.T.);
#101=CONICAL_SURFACE('',#165,36.8525,0.785398163397449);
#102=SURFACE_STYLE_USAGE(.BOTH.,#166);
#103=FACE_OUTER_BOUND('',#167,.T.);
#104=CYLINDRICAL_SURFACE('',#168,37.59);
#105=SURFACE_STYLE_USAGE(.BOTH.,#169);
#106=FACE_OUTER_BOUND('',#170,.T.);
#107=CYLINDRICAL_SURFACE('',#171,31.5);
#108=SURFACE_STYLE_USAGE(.BOTH.,#172);
#109=FACE_OUTER_BOUND('',#173,.T.);
#110=CYLINDRICAL_SURFACE('',#174,31.59);
#111=SURFACE_STYLE_USAGE(.BOTH.,#175);
#112=FACE_OUTER_BOUND('',#176,.T.);
#113=CYLINDRICAL_SURFACE('',#177,31.59);
#114=SURFACE_STYLE_USAGE(.BOTH.,#178);
#115=FACE_BOUND('',#179,.T.);
#116=FACE_OUTER_BOUND('',#180,.T.);
#117=PLANE('',#181);
#118=SURFACE_STYLE_USAGE(.BOTH.,#182);
#119=FACE_OUTER_BOUND('',#183,.T.);
#120=CYLINDRICAL_SURFACE('',#184,31.5);
#121=SURFACE_STYLE_USAGE(.BOTH.,#185);
#122=FACE_OUTER_BOUND('',#186,.T.);
#123=CYLINDRICAL_SURFACE('',#187,37.59);
#124=SURFACE_STYLE_USAGE(.BOTH.,#188);
#125=FACE_OUTER_BOUND('',#189,.T.);
#126=CONICAL_SURFACE('',#190,36.8525,0.785398163397449);
#127=SURFACE_STYLE_USAGE(.BOTH.,#191);
#128=FACE_BOUND('',#192,.T.);
#129=FACE_OUTER_BOUND('',#193,.T.);
#130=PLANE('',#194);
#131=SURFACE_STYLE_USAGE(.BOTH.,#195);
#132=FACE_OUTER_BOUND('',#196,.T.);
#133=FACE_BOUND('',#197,.T.);
#134=PLANE('',#198);
#135=SURFACE_STYLE_USAGE(.BOTH.,#199);
#136=FACE_OUTER_BOUND('',#200,.T.);
#137=CYLINDRICAL_SURFACE('',#201,42.5);
#138=SURFACE_STYLE_USAGE(.BOTH.,#202);
#139=FACE_BOUND('',#203,.T.);
#140=FACE_OUTER_BOUND('',#204,.T.);
#141=PLANE('',#205);
#142=SURFACE_STYLE_USAGE(.BOTH.,#206);
#143=FACE_OUTER_BOUND('',#207,.T.);
#144=CYLINDRICAL_SURFACE('',#208,37.5);
#145=SURFACE_STYLE_USAGE(.BOTH.,#209);
#146=FACE_BOUND('',#210,.T.);
#147=FACE_OUTER_BOUND('',#211,.T.);
#148=PLANE('',#212);
#149=SURFACE_STYLE_USAGE(.BOTH.,#213);
#150=CLOSED_SHELL('',(#42,#44,#46,#48,#50,#52,#54,#56,#58,#60,#62,#64,#66,#68,#70,#72,#74));
#151=PRODUCT_CONTEXT('',#28,'mechanical');
#152=PRODUCT_DEFINITION_FORMATION_WITH_SPECIFIED_SOURCE(' ','NONE',#77,.NOT_KNOWN.);
#153=CARTESIAN_POINT('',(0.0,0.0,0.0));
#154=DIRECTION('',(0.0,0.0,1.0));
#155=DIRECTION('',(1.0,0.0,0.0));
#156= (NAMED_UNIT(#85)LENGTH_UNIT()SI_UNIT(.MILLI.,.METRE.));
#157=SURFACE_SIDE_STYLE('',(#215));
#158=EDGE_LOOP('',(#216,#217,#218,#219));
#159=AXIS2_PLACEMENT_3D('',#220,#221,#222);
#160=SURFACE_SIDE_STYLE('',(#223));
#161=EDGE_LOOP('',(#224,#225,#226,#227));
#162=AXIS2_PLACEMENT_3D('',#228,#229,#230);
#163=SURFACE_SIDE_STYLE('',(#231));
#164=EDGE_LOOP('',(#232,#233,#234,#235));
#165=AXIS2_PLACEMENT_3D('',#236,#237,#238);
#166=SURFACE_SIDE_STYLE('',(#239));
#167=EDGE_LOOP('',(#240,#241,#242,#243));
#168=AXIS2_PLACEMENT_3D('',#244,#245,#246);
#169=SURFACE_SIDE_STYLE('',(#247));
#170=EDGE_LOOP('',(#248,#249,#250,#251));
#171=AXIS2_PLACEMENT_3D('',#252,#253,#254);
#172=SURFACE_SIDE_STYLE('',(#255));
#173=EDGE_LOOP('',(#256,#257,#258,#259));
#174=AXIS2_PLACEMENT_3D('',#260,#261,#262);
#175=SURFACE_SIDE_STYLE('',(#263));
#176=EDGE_LOOP('',(#264,#265,#266,#267));
#177=AXIS2_PLACEMENT_3D('',#268,#269,#270);
#178=SURFACE_SIDE_STYLE('',(#271));
#179=EDGE_LOOP('',(#272,#273));
#180=EDGE_LOOP('',(#274,#275));
#181=AXIS2_PLACEMENT_3D('',#276,#277,#278);
#182=SURFACE_SIDE_STYLE('',(#279));
#183=EDGE_LOOP('',(#280,#281,#282,#283));
#184=AXIS2_PLACEMENT_3D('',#284,#285,#286);
#185=SURFACE_SIDE_STYLE('',(#287));
#186=EDGE_LOOP('',(#288,#289,#290,#291));
#187=AXIS2_PLACEMENT_3D('',#292,#293,#294);
#188=SURFACE_SIDE_STYLE('',(#295));
#189=EDGE_LOOP('',(#296,#297,#298,#299));
#190=AXIS2_PLACEMENT_3D('',#300,#301,#302);
#191=SURFACE_SIDE_STYLE('',(#303));
#192=EDGE_LOOP('',(#304,#305));
#193=EDGE_LOOP('',(#306,#307));
#194=AXIS2_PLACEMENT_3D('',#308,#309,#310);
#195=SURFACE_SIDE_STYLE('',(#311));
#196=EDGE_LOOP('',(#312,#313));
#197=EDGE_LOOP('',(#314,#315));
#198=AXIS2_PLACEMENT_3D('',#316,#317,#318);
#199=SURFACE_SIDE_STYLE('',(#319));
#200=EDGE_LOOP('',(#320,#321,#322,#323));
#201=AXIS2_PLACEMENT_3D('',#324,#325,#326);
#202=SURFACE_SIDE_STYLE('',(#327));
#203=EDGE_LOOP('',(#328,#329));
#204=EDGE_LOOP('',(#330,#331));
#205=AXIS2_PLACEMENT_3D('',#332,#333,#334);
#206=SURFACE_SIDE_STYLE('',(#335));
#207=EDGE_LOOP('',(#336,#337,#338,#339));
#208=AXIS2_PLACEMENT_3D('',#340,#341,#342);
#209=SURFACE_SIDE_STYLE('',(#343));
#210=EDGE_LOOP('',(#344,#345));
#211=EDGE_LOOP('',(#346,#347));
#212=AXIS2_PLACEMENT_3D('',#348,#349,#350);
#213=SURFACE_SIDE_STYLE('',(#351));
#215=SURFACE_STYLE_FILL_AREA(#352);
#216=ORIENTED_EDGE('',*,*,#353,.F.);
#217=ORIENTED_EDGE('',*,*,#354,.F.);
#218=ORIENTED_EDGE('',*,*,#355,.F.);
#219=ORIENTED_EDGE('',*,*,#356,.F.);
#220=CARTESIAN_POINT('',(0.0,0.0,19.0));
#221=DIRECTION('',(0.0,0.0,1.0));
#222=DIRECTION('',(1.0,0.0,0.0));
#223=SURFACE_STYLE_FILL_AREA(#357);
#224=ORIENTED_EDGE('',*,*,#358,.F.);
#225=ORIENTED_EDGE('',*,*,#359,.F.);
#226=ORIENTED_EDGE('',*,*,#360,.F.);
#227=ORIENTED_EDGE('',*,*,#361,.F.);
#228=CARTESIAN_POINT('',(0.0,0.0,41.0));
#229=DIRECTION('',(0.0,0.0,1.0));
#230=DIRECTION('',(1.0,0.0,0.0));
#231=SURFACE_STYLE_FILL_AREA(#362);
#232=ORIENTED_EDGE('',*,*,#363,.F.);
#233=ORIENTED_EDGE('',*,*,#364,.T.);
#234=ORIENTED_EDGE('',*,*,#365,.F.);
#235=ORIENTED_EDGE('',*,*,#366,.F.);
#236=CARTESIAN_POINT('',(0.0,0.0,83.2625));
#237=DIRECTION('',(-0.0,-0.0,-1.0));
#238=DIRECTION('',(-1.0,0.0,0.0));
#239=SURFACE_STYLE_FILL_AREA(#367);
#240=ORIENTED_EDGE('',*,*,#368,.F.);
#241=ORIENTED_EDGE('',*,*,#369,.F.);
#242=ORIENTED_EDGE('',*,*,#370,.F.);
#243=ORIENTED_EDGE('',*,*,#364,.F.);
#244=CARTESIAN_POINT('',(0.0,0.0,63.2175));
#245=DIRECTION('',(0.0,0.0,1.0));
#246=DIRECTION('',(-1.0,0.0,0.0));
#247=SURFACE_STYLE_FILL_AREA(#371);
#248=ORIENTED_EDGE('',*,*,#372,.F.);
#249=ORIENTED_EDGE('',*,*,#373,.T.);
#250=ORIENTED_EDGE('',*,*,#374,.F.);
#251=ORIENTED_EDGE('',*,*,#375,.F.);
#252=CARTESIAN_POINT('',(0.0,0.0,21.25));
#253=DIRECTION('',(0.0,0.0,1.0));
#254=DIRECTION('',(1.0,0.0,0.0));
#255=SURFACE_STYLE_FILL_AREA(#376);
#256=ORIENTED_EDGE('',*,*,#377,.F.);
#257=ORIENTED_EDGE('',*,*,#378,.T.);
#258=ORIENTED_EDGE('',*,*,#379,.F.);
#259=ORIENTED_EDGE('',*,*,#380,.F.);
#260=CARTESIAN_POINT('',(0.0,0.0,63.25));
#261=DIRECTION('',(0.0,0.0,-1.0));
#262=DIRECTION('',(-1.0,0.0,0.0));
#263=SURFACE_STYLE_FILL_AREA(#381);
#264=ORIENTED_EDGE('',*,*,#377,.T.);
#265=ORIENTED_EDGE('',*,*,#382,.F.);
#266=ORIENTED_EDGE('',*,*,#379,.T.);
#267=ORIENTED_EDGE('',*,*,#383,.T.);
#268=CARTESIAN_POINT('',(0.0,0.0,63.25));
#269=DIRECTION('',(0.0,0.0,-1.0));
#270=DIRECTION('',(-1.0,0.0,0.0));
#271=SURFACE_STYLE_FILL_AREA(#384);
#272=ORIENTED_EDGE('',*,*,#373,.F.);
#273=ORIENTED_EDGE('',*,*,#385,.F.);
#274=ORIENTED_EDGE('',*,*,#378,.F.);
#275=ORIENTED_EDGE('',*,*,#383,.F.);
#276=CARTESIAN_POINT('',(0.0,0.0,42.5));
#277=DIRECTION('',(0.0,0.0,-1.0));
#278=DIRECTION('',(-1.0,0.0,0.0));
#279=SURFACE_STYLE_FILL_AREA(#386);
#280=ORIENTED_EDGE('',*,*,#372,.T.);
#281=ORIENTED_EDGE('',*,*,#387,.F.);
#282=ORIENTED_EDGE('',*,*,#374,.T.);
#283=ORIENTED_EDGE('',*,*,#385,.T.);
#284=CARTESIAN_POINT('',(0.0,0.0,21.25));
#285=DIRECTION('',(0.0,0.0,1.0));
#286=DIRECTION('',(1.0,0.0,0.0));
#287=SURFACE_STYLE_FILL_AREA(#388);
#288=ORIENTED_EDGE('',*,*,#368,.T.);
#289=ORIENTED_EDGE('',*,*,#389,.F.);
#290=ORIENTED_EDGE('',*,*,#370,.T.);
#291=ORIENTED_EDGE('',*,*,#390,.F.);
#292=CARTESIAN_POINT('',(0.0,0.0,63.2175));
#293=DIRECTION('',(0.0,0.0,1.0));
#294=DIRECTION('',(-1.0,0.0,0.0));
#295=SURFACE_STYLE_FILL_AREA(#391);
#296=ORIENTED_EDGE('',*,*,#363,.T.);
#297=ORIENTED_EDGE('',*,*,#392,.F.);
#298=ORIENTED_EDGE('',*,*,#365,.T.);
#299=ORIENTED_EDGE('',*,*,#389,.T.);
#300=CARTESIAN_POINT('',(0.0,0.0,83.2625));
#301=DIRECTION('',(-0.0,-0.0,-1.0));
#302=DIRECTION('',(-1.0,0.0,0.0));
#303=SURFACE_STYLE_FILL_AREA(#393);
#304=ORIENTED_EDGE('',*,*,#380,.T.);
#305=ORIENTED_EDGE('',*,*,#382,.T.);
#306=ORIENTED_EDGE('',*,*,#366,.T.);
#307=ORIENTED_EDGE('',*,*,#392,.T.);
#308=CARTESIAN_POINT('',(-18.0575,0.0,84.0));
#309=DIRECTION('',(0.0,0.0,1.0));
#310=DIRECTION('',(-1.0,0.0,0.0));
#311=SURFACE_STYLE_FILL_AREA(#394);
#312=ORIENTED_EDGE('',*,*,#395,.T.);
#313=ORIENTED_EDGE('',*,*,#359,.T.);
#314=ORIENTED_EDGE('',*,*,#356,.T.);
#315=ORIENTED_EDGE('',*,*,#396,.T.);
#316=CARTESIAN_POINT('',(0.0,0.0,38.0));
#317=DIRECTION('',(0.0,0.0,-1.0));
#318=DIRECTION('',(-1.0,0.0,0.0));
#319=SURFACE_STYLE_FILL_AREA(#397);
#320=ORIENTED_EDGE('',*,*,#358,.T.);
#321=ORIENTED_EDGE('',*,*,#398,.F.);
#322=ORIENTED_EDGE('',*,*,#360,.T.);
#323=ORIENTED_EDGE('',*,*,#395,.F.);
#324=CARTESIAN_POINT('',(0.0,0.0,41.0));
#325=DIRECTION('',(0.0,0.0,1.0));
#326=DIRECTION('',(1.0,0.0,0.0));
#327=SURFACE_STYLE_FILL_AREA(#399);
#328=ORIENTED_EDGE('',*,*,#369,.T.);
#329=ORIENTED_EDGE('',*,*,#390,.T.);
#330=ORIENTED_EDGE('',*,*,#361,.T.);
#331=ORIENTED_EDGE('',*,*,#398,.T.);
#332=CARTESIAN_POINT('',(0.0,0.0,44.0));
#333=DIRECTION('',(0.0,0.0,1.0));
#334=DIRECTION('',(1.0,0.0,0.0));
#335=SURFACE_STYLE_FILL_AREA(#400);
#336=ORIENTED_EDGE('',*,*,#353,.T.);
#337=ORIENTED_EDGE('',*,*,#396,.F.);
#338=ORIENTED_EDGE('',*,*,#355,.T.);
#339=ORIENTED_EDGE('',*,*,#401,.F.);
#340=CARTESIAN_POINT('',(0.0,0.0,19.0));
#341=DIRECTION('',(0.0,0.0,1.0));
#342=DIRECTION('',(1.0,0.0,0.0));
#343=SURFACE_STYLE_FILL_AREA(#402);
#344=ORIENTED_EDGE('',*,*,#375,.T.);
#345=ORIENTED_EDGE('',*,*,#387,.T.);
#346=ORIENTED_EDGE('',*,*,#401,.T.);
#347=ORIENTED_EDGE('',*,*,#354,.T.);
#348=CARTESIAN_POINT('',(0.0,0.0,0.0));
#349=DIRECTION('',(0.0,0.0,-1.0));
#350=DIRECTION('',(-1.0,0.0,0.0));
#351=SURFACE_STYLE_FILL_AREA(#403);
#352=FILL_AREA_STYLE('',(#404));
#353=EDGE_CURVE('',#405,#406,#407,.T.);
#354=EDGE_CURVE('',#408,#405,#409,.T.);
#355=EDGE_CURVE('',#410,#408,#411,.T.);
#356=EDGE_CURVE('',#406,#410,#412,.T.);
#357=FILL_AREA_STYLE('',(#413));
#358=EDGE_CURVE('',#414,#415,#416,.T.);
#359=EDGE_CURVE('',#417,#414,#418,.T.);
#360=EDGE_CURVE('',#419,#417,#420,.T.);
#361=EDGE_CURVE('',#415,#419,#421,.T.);
#362=FILL_AREA_STYLE('',(#422));
#363=EDGE_CURVE('',#423,#424,#425,.T.);
#364=EDGE_CURVE('',#423,#426,#427,.T.);
#365=EDGE_CURVE('',#428,#426,#429,.T.);
#366=EDGE_CURVE('',#424,#428,#430,.T.);
#367=FILL_AREA_STYLE('',(#431));
#368=EDGE_CURVE('',#432,#423,#433,.T.);
#369=EDGE_CURVE('',#434,#432,#435,.T.);
#370=EDGE_CURVE('',#426,#434,#436,.T.);
#371=FILL_AREA_STYLE('',(#437));
#372=EDGE_CURVE('',#438,#439,#440,.T.);
#373=EDGE_CURVE('',#438,#441,#442,.T.);
#374=EDGE_CURVE('',#443,#441,#444,.T.);
#375=EDGE_CURVE('',#439,#443,#445,.T.);
#376=FILL_AREA_STYLE('',(#446));
#377=EDGE_CURVE('',#447,#448,#449,.T.);
#378=EDGE_CURVE('',#447,#450,#451,.T.);
#379=EDGE_CURVE('',#452,#450,#453,.T.);
#380=EDGE_CURVE('',#448,#452,#454,.T.);
#381=FILL_AREA_STYLE('',(#455));
#382=EDGE_CURVE('',#452,#448,#456,.T.);
#383=EDGE_CURVE('',#450,#447,#457,.T.);
#384=FILL_AREA_STYLE('',(#458));
#385=EDGE_CURVE('',#441,#438,#459,.T.);
#386=FILL_AREA_STYLE('',(#460));
#387=EDGE_CURVE('',#443,#439,#461,.T.);
#388=FILL_AREA_STYLE('',(#462));
#389=EDGE_CURVE('',#426,#423,#463,.T.);
#390=EDGE_CURVE('',#432,#434,#464,.T.);
#391=FILL_AREA_STYLE('',(#465));
#392=EDGE_CURVE('',#428,#424,#466,.T.);
#393=FILL_AREA_STYLE('',(#467));
#394=FILL_AREA_STYLE('',(#468));
#395=EDGE_CURVE('',#414,#417,#469,.T.);
#396=EDGE_CURVE('',#410,#406,#470,.T.);
#397=FILL_AREA_STYLE('',(#471));
#398=EDGE_CURVE('',#419,#415,#472,.T.);
#399=FILL_AREA_STYLE('',(#473));
#400=FILL_AREA_STYLE('',(#474));
#401=EDGE_CURVE('',#405,#408,#475,.T.);
#402=FILL_AREA_STYLE('',(#476));
#403=FILL_AREA_STYLE('',(#477));
#404=FILL_AREA_STYLE_COLOUR('',#478);
#405=VERTEX_POINT('',#479);
#406=VERTEX_POINT('',#480);
#407=LINE('',#481,#482);
#408=VERTEX_POINT('',#483);
#409=CIRCLE('',#484,37.5);
#410=VERTEX_POINT('',#485);
#411=LINE('',#486,#487);
#412=CIRCLE('',#488,37.5);
#413=FILL_AREA_STYLE_COLOUR('',#489);
#414=VERTEX_POINT('',#490);
#415=VERTEX_POINT('',#491);
#416=LINE('',#492,#493);
#417=VERTEX_POINT('',#494);
#418=CIRCLE('',#495,42.5);
#419=VERTEX_POINT('',#496);
#420=LINE('',#497,#498);
#421=CIRCLE('',#499,42.5);
#422=FILL_AREA_STYLE_COLOUR('',#500);
#423=VERTEX_POINT('',#501);
#424=VERTEX_POINT('',#502);
#425=LINE('',#503,#504);
#426=VERTEX_POINT('',#505);
#427=CIRCLE('',#506,37.59);
#428=VERTEX_POINT('',#507);
#429=LINE('',#508,#509);
#430=CIRCLE('',#510,36.115);
#431=FILL_AREA_STYLE_COLOUR('',#511);
#432=VERTEX_POINT('',#512);
#433=LINE('',#513,#514);
#434=VERTEX_POINT('',#515);
#435=CIRCLE('',#516,37.59);
#436=LINE('',#517,#518);
#437=FILL_AREA_STYLE_COLOUR('',#519);
#438=VERTEX_POINT('',#520);
#439=VERTEX_POINT('',#521);
#440=LINE('',#522,#523);
#441=VERTEX_POINT('',#524);
#442=CIRCLE('',#525,31.5);
#443=VERTEX_POINT('',#526);
#444=LINE('',#527,#528);
#445=CIRCLE('',#529,31.5);
#446=FILL_AREA_STYLE_COLOUR('',#530);
#447=VERTEX_POINT('',#531);
#448=VERTEX_POINT('',#532);
#449=LINE('',#533,#534);
#450=VERTEX_POINT('',#535);
#451=CIRCLE('',#536,31.59);
#452=VERTEX_POINT('',#537);
#453=LINE('',#538,#539);
#454=CIRCLE('',#540,31.59);
#455=FILL_AREA_STYLE_COLOUR('',#541);
#456=CIRCLE('',#542,31.59);
#457=CIRCLE('',#543,31.59);
#458=FILL_AREA_STYLE_COLOUR('',#544);
#459=CIRCLE('',#545,31.5);
#460=FILL_AREA_STYLE_COLOUR('',#546);
#461=CIRCLE('',#547,31.5);
#462=FILL_AREA_STYLE_COLOUR('',#548);
#463=CIRCLE('',#549,37.59);
#464=CIRCLE('',#550,37.59);
#465=FILL_AREA_STYLE_COLOUR('',#551);
#466=CIRCLE('',#552,36.115);
#467=FILL_AREA_STYLE_COLOUR('',#553);
#468=FILL_AREA_STYLE_COLOUR('',#554);
#469=CIRCLE('',#555,42.5);
#470=CIRCLE('',#556,37.5);
#471=FILL_AREA_STYLE_COLOUR('',#557);
#472=CIRCLE('',#558,42.5);
#473=FILL_AREA_STYLE_COLOUR('',#559);
#474=FILL_AREA_STYLE_COLOUR('',#560);
#475=CIRCLE('',#561,37.5);
#476=FILL_AREA_STYLE_COLOUR('',#562);
#477=FILL_AREA_STYLE_COLOUR('',#563);
#478=COLOUR_RGB('',0.250980406999588,0.290196090936661,0.329411774873734);
#479=CARTESIAN_POINT('',(37.5,0.0,0.0));
#480=CARTESIAN_POINT('',(37.5,0.0,38.0));
#481=CARTESIAN_POINT('',(37.5,-4.59242549680257E-015,19.0));
#482=VECTOR('',#564,1.0);
#483=CARTESIAN_POINT('',(-37.5,4.59242549680257E-015,0.0));
#484=AXIS2_PLACEMENT_3D('',#565,#566,#567);
#485=CARTESIAN_POINT('',(-37.5,4.59242549680257E-015,38.0));
#486=CARTESIAN_POINT('',(-37.5,4.59242549680257E-015,19.0));
#487=VECTOR('',#568,1.0);
#488=AXIS2_PLACEMENT_3D('',#569,#570,#571);
#489=COLOUR_RGB('',0.250980406999588,0.290196090936661,0.329411774873734);
#490=CARTESIAN_POINT('',(42.5,0.0,38.0));
#491=CARTESIAN_POINT('',(42.5,0.0,44.0));
#492=CARTESIAN_POINT('',(42.5,-5.20474889637625E-015,41.0));
#493=VECTOR('',#572,1.0);
#494=CARTESIAN_POINT('',(-42.5,5.20474889637625E-015,38.0));
#495=AXIS2_PLACEMENT_3D('',#573,#574,#575);
#496=CARTESIAN_POINT('',(-42.5,5.20474889637625E-015,44.0));
#497=CARTESIAN_POINT('',(-42.5,5.20474889637625E-015,41.0));
#498=VECTOR('',#576,1.0);
#499=AXIS2_PLACEMENT_3D('',#577,#578,#579);
#500=COLOUR_RGB('',1.0,1.0,0.501960813999176);
#501=CARTESIAN_POINT('',(-37.59,0.0,82.525));
#502=CARTESIAN_POINT('',(-36.115,0.0,84.0));
#503=CARTESIAN_POINT('',(-36.8525,4.51312961655778E-015,83.2625));
#504=VECTOR('',#580,1.0);
#505=CARTESIAN_POINT('',(37.59,-4.6034473179949E-015,82.525));
#506=AXIS2_PLACEMENT_3D('',#581,#582,#583);
#507=CARTESIAN_POINT('',(36.115,-4.42281191512067E-015,84.0));
#508=CARTESIAN_POINT('',(36.8525,-4.51312961655779E-015,83.2625));
#509=VECTOR('',#584,1.0);
#510=AXIS2_PLACEMENT_3D('',#585,#586,#587);
#511=COLOUR_RGB('',1.0,1.0,0.501960813999176);
#512=CARTESIAN_POINT('',(-37.59,4.6034473179949E-015,44.0));
#513=CARTESIAN_POINT('',(-37.59,4.6034473179949E-015,63.2175));
#514=VECTOR('',#588,1.0);
#515=CARTESIAN_POINT('',(37.59,-4.6034473179949E-015,44.0));
#516=AXIS2_PLACEMENT_3D('',#589,#590,#591);
#517=CARTESIAN_POINT('',(37.59,-4.6034473179949E-015,63.2175));
#518=VECTOR('',#592,1.0);
#519=COLOUR_RGB('',0.250980406999588,0.290196090936661,0.329411774873734);
#520=CARTESIAN_POINT('',(31.5,0.0,42.5));
#521=CARTESIAN_POINT('',(31.5,0.0,0.0));
#522=CARTESIAN_POINT('',(31.5,-3.85763741731416E-015,21.25));
#523=VECTOR('',#593,1.0);
#524=CARTESIAN_POINT('',(-31.5,3.85763741731416E-015,42.5));
#525=AXIS2_PLACEMENT_3D('',#594,#595,#596);
#526=CARTESIAN_POINT('',(-31.5,3.85763741731416E-015,0.0));
#527=CARTESIAN_POINT('',(-31.5,3.85763741731416E-015,21.25));
#528=VECTOR('',#597,1.0);
#529=AXIS2_PLACEMENT_3D('',#598,#599,#600);
#530=COLOUR_RGB('',0.250980406999588,0.290196090936661,0.329411774873734);
#531=CARTESIAN_POINT('',(-31.59,0.0,42.5));
#532=CARTESIAN_POINT('',(-31.59,0.0,84.0));
#533=CARTESIAN_POINT('',(-31.59,-3.86865923850649E-015,63.25));
#534=VECTOR('',#601,1.0);
#535=CARTESIAN_POINT('',(31.59,3.86865923850649E-015,42.5));
#536=AXIS2_PLACEMENT_3D('',#602,#603,#604);
#537=CARTESIAN_POINT('',(31.59,3.86865923850649E-015,84.0));
#538=CARTESIAN_POINT('',(31.59,3.86865923850649E-015,63.25));
#539=VECTOR('',#605,1.0);
#540=AXIS2_PLACEMENT_3D('',#606,#607,#608);
#541=COLOUR_RGB('',0.250980406999588,0.290196090936661,0.329411774873734);
#542=AXIS2_PLACEMENT_3D('',#609,#610,#611);
#543=AXIS2_PLACEMENT_3D('',#612,#613,#614);
#544=COLOUR_RGB('',0.250980406999588,0.290196090936661,0.329411774873734);
#545=AXIS2_PLACEMENT_3D('',#615,#616,#617);
#546=COLOUR_RGB('',0.250980406999588,0.290196090936661,0.329411774873734);
#547=AXIS2_PLACEMENT_3D('',#618,#619,#620);
#548=COLOUR_RGB('',1.0,1.0,0.501960813999176);
#549=AXIS2_PLACEMENT_3D('',#621,#622,#623);
#550=AXIS2_PLACEMENT_3D('',#624,#625,#626);
#551=COLOUR_RGB('',1.0,1.0,0.501960813999176);
#552=AXIS2_PLACEMENT_3D('',#627,#628,#629);
#553=COLOUR_RGB('',1.0,1.0,0.501960813999176);
#554=COLOUR_RGB('',0.250980406999588,0.290196090936661,0.329411774873734);
#555=AXIS2_PLACEMENT_3D('',#630,#631,#632);
#556=AXIS2_PLACEMENT_3D('',#633,#634,#635);
#557=COLOUR_RGB('',0.250980406999588,0.290196090936661,0.329411774873734);
#558=AXIS2_PLACEMENT_3D('',#636,#637,#638);
#559=COLOUR_RGB('',0.250980406999588,0.290196090936661,0.329411774873734);
#560=COLOUR_RGB('',0.250980406999588,0.290196090936661,0.329411774873734);
#561=AXIS2_PLACEMENT_3D('',#639,#640,#641);
#562=COLOUR_RGB('',0.250980406999588,0.290196090936661,0.329411774873734);
#563=COLOUR_RGB('',0.250980406999588,0.290196090936661,0.329411774873734);
#564=DIRECTION('',(0.0,0.0,1.0));
#565=CARTESIAN_POINT('',(0.0,0.0,0.0));
#566=DIRECTION('',(0.0,0.0,-1.0));
#567=DIRECTION('',(1.0,0.0,0.0));
#568=DIRECTION('',(-0.0,-0.0,-1.0));
#569=CARTESIAN_POINT('',(0.0,0.0,38.0));
#570=DIRECTION('',(0.0,0.0,1.0));
#571=DIRECTION('',(1.0,0.0,0.0));
#572=DIRECTION('',(0.0,0.0,1.0));
#573=CARTESIAN_POINT('',(0.0,0.0,38.0));
#574=DIRECTION('',(0.0,0.0,-1.0));
#575=DIRECTION('',(1.0,0.0,0.0));
#576=DIRECTION('',(-0.0,-0.0,-1.0));
#577=CARTESIAN_POINT('',(0.0,0.0,44.0));
#578=DIRECTION('',(0.0,0.0,1.0));
#579=DIRECTION('',(1.0,0.0,0.0));
#580=DIRECTION('',(0.707106781186548,-8.65956056235494E-017,0.707106781186547));
#581=CARTESIAN_POINT('',(0.0,0.0,82.525));
#582=DIRECTION('',(0.0,0.0,1.0));
#583=DIRECTION('',(-1.0,0.0,0.0));
#584=DIRECTION('',(0.707106781186548,-8.65956056235494E-017,-0.707106781186547));
#585=CARTESIAN_POINT('',(0.0,0.0,84.0));
#586=DIRECTION('',(0.0,0.0,1.0));
#587=DIRECTION('',(-1.0,0.0,0.0));
#588=DIRECTION('',(0.0,0.0,1.0));
#589=CARTESIAN_POINT('',(0.0,0.0,44.0));
#590=DIRECTION('',(-0.0,0.0,-1.0));
#591=DIRECTION('',(-1.0,0.0,0.0));
#592=DIRECTION('',(-0.0,-0.0,-1.0));
#593=DIRECTION('',(-0.0,0.0,-1.0));
#594=CARTESIAN_POINT('',(0.0,0.0,42.5));
#595=DIRECTION('',(0.0,0.0,1.0));
#596=DIRECTION('',(1.0,0.0,0.0));
#597=DIRECTION('',(-0.0,0.0,1.0));
#598=CARTESIAN_POINT('',(0.0,0.0,0.0));
#599=DIRECTION('',(0.0,-0.0,1.0));
#600=DIRECTION('',(1.0,0.0,0.0));
#601=DIRECTION('',(0.0,0.0,1.0));
#602=CARTESIAN_POINT('',(0.0,0.0,42.5));
#603=DIRECTION('',(0.0,0.0,-1.0));
#604=DIRECTION('',(-1.0,0.0,0.0));
#605=DIRECTION('',(0.0,0.0,-1.0));
#606=CARTESIAN_POINT('',(0.0,0.0,84.0));
#607=DIRECTION('',(-0.0,0.0,-1.0));
#608=DIRECTION('',(-1.0,0.0,0.0));
#609=CARTESIAN_POINT('',(0.0,0.0,84.0));
#610=DIRECTION('',(-0.0,0.0,-1.0));
#611=DIRECTION('',(-1.0,0.0,0.0));
#612=CARTESIAN_POINT('',(0.0,0.0,42.5));
#613=DIRECTION('',(0.0,0.0,-1.0));
#614=DIRECTION('',(-1.0,0.0,0.0));
#615=CARTESIAN_POINT('',(0.0,0.0,42.5));
#616=DIRECTION('',(0.0,0.0,1.0));
#617=DIRECTION('',(1.0,0.0,0.0));
#618=CARTESIAN_POINT('',(0.0,0.0,0.0));
#619=DIRECTION('',(0.0,-0.0,1.0));
#620=DIRECTION('',(1.0,0.0,0.0));
#621=CARTESIAN_POINT('',(0.0,0.0,82.525));
#622=DIRECTION('',(0.0,0.0,1.0));
#623=DIRECTION('',(-1.0,0.0,0.0));
#624=CARTESIAN_POINT('',(0.0,0.0,44.0));
#625=DIRECTION('',(-0.0,0.0,-1.0));
#626=DIRECTION('',(-1.0,0.0,0.0));
#627=CARTESIAN_POINT('',(0.0,0.0,84.0));
#628=DIRECTION('',(0.0,0.0,1.0));
#629=DIRECTION('',(-1.0,0.0,0.0));
#630=CARTESIAN_POINT('',(0.0,0.0,38.0));
#631=DIRECTION('',(0.0,0.0,-1.0));
#632=DIRECTION('',(1.0,0.0,0.0));
#633=CARTESIAN_POINT('',(0.0,0.0,38.0));
#634=DIRECTION('',(0.0,0.0,1.0));
#635=DIRECTION('',(1.0,0.0,0.0));
#636=CARTESIAN_POINT('',(0.0,0.0,44.0));
#637=DIRECTION('',(0.0,0.0,1.0));
#638=DIRECTION('',(1.0,0.0,0.0));
#639=CARTESIAN_POINT('',(0.0,0.0,0.0));
#640=DIRECTION('',(0.0,0.0,-1.0));
#641=DIRECTION('',(1.0,0.0,0.0));
ENDSEC;
END-ISO-10303-21;
