ISO-10303-21;
HEADER;
/* Generated by software containing ST-Developer
 * from STEP Tools, Inc. (www.steptools.com) 
 */

FILE_DESCRIPTION(
/* description */ ('25SFTF06SXZ-76501'),
/* implementation_level */ '2;1');

FILE_NAME(
/* name */ 'J:\\003 3D Zeichnungen_step\\Serie 25\\25sftf08sxz.stp',
/* time_stamp */ '2018-03-21T08:36:03+01:00',
/* author */ ('IA176480'),
/* organization */ (''),
/* preprocessor_version */ 'ST-DEVELOPER v16.5',
/* originating_system */ 'Autodesk Inventor 2017',
/* authorisation */ '');

FILE_SCHEMA (('AUTOMOTIVE_DESIGN { 1 0 10303 214 3 1 1 }'));
ENDSEC;

DATA;
#10=MECHANICAL_DESIGN_GEOMETRIC_PRESENTATION_REPRESENTATION('',(#13),#563);
#11=SHAPE_REPRESENTATION_RELATIONSHIP('SRR','None',#572,#12);
#12=ADVANCED_BREP_SHAPE_REPRESENTATION('',(#14),#562);
#13=STYLED_ITEM('',(#581),#14);
#14=MANIFOLD_SOLID_BREP('Volumenk\X\F6rper1',#293);
#15=(
BOUNDED_CURVE()
B_SPLINE_CURVE(2,(#547,#548,#549),.UNSPECIFIED.,.F.,.F.)
B_SPLINE_CURVE_WITH_KNOTS((3,3),(-0.848178390294782,0.707483211779345),
 .UNSPECIFIED.)
CURVE()
GEOMETRIC_REPRESENTATION_ITEM()
RATIONAL_B_SPLINE_CURVE((1.,0.71243741722846,1.))
REPRESENTATION_ITEM('')
);
#16=(
BOUNDED_SURFACE()
B_SPLINE_SURFACE(2,2,((#516,#517,#518,#519,#520,#521,#522,#523,#524),(#525,
#526,#527,#528,#529,#530,#531,#532,#533),(#534,#535,#536,#537,#538,#539,
#540,#541,#542)),.UNSPECIFIED.,.F.,.T.,.F.)
B_SPLINE_SURFACE_WITH_KNOTS((3,3),(3,2,2,2,3),(-0.707483211779345,0.848178390294782),
(-3.14159265358979,-1.5707963267949,0.,1.5707963267949,3.14159265358979),
 .UNSPECIFIED.)
GEOMETRIC_REPRESENTATION_ITEM()
RATIONAL_B_SPLINE_SURFACE(((1.,0.707106781186548,1.,0.707106781186548,1.,
0.707106781186548,1.,0.707106781186548,1.),(0.71243741722846,0.503769328893274,
0.71243741722846,0.503769328893274,0.71243741722846,0.503769328893274,0.71243741722846,
0.503769328893274,0.71243741722846),(1.,0.707106781186548,1.,0.707106781186548,
1.,0.707106781186548,1.,0.707106781186548,1.)))
REPRESENTATION_ITEM('')
SURFACE()
);
#17=CYLINDRICAL_SURFACE('',#312,6.);
#18=CYLINDRICAL_SURFACE('',#316,4.05);
#19=CYLINDRICAL_SURFACE('',#321,4.95);
#20=CYLINDRICAL_SURFACE('',#327,6.);
#21=CYLINDRICAL_SURFACE('',#331,4.875);
#22=CYLINDRICAL_SURFACE('',#346,3.);
#23=CYLINDRICAL_SURFACE('',#350,3.925);
#24=PLANE('',#310);
#25=PLANE('',#323);
#26=PLANE('',#334);
#27=PLANE('',#344);
#28=FACE_BOUND('',#81,.T.);
#29=FACE_BOUND('',#83,.T.);
#30=FACE_BOUND('',#85,.T.);
#31=FACE_BOUND('',#87,.T.);
#32=FACE_BOUND('',#89,.T.);
#33=FACE_BOUND('',#91,.T.);
#34=FACE_BOUND('',#93,.T.);
#35=FACE_BOUND('',#95,.T.);
#36=FACE_BOUND('',#97,.T.);
#37=FACE_BOUND('',#99,.T.);
#38=FACE_BOUND('',#101,.T.);
#39=FACE_BOUND('',#103,.T.);
#40=FACE_BOUND('',#105,.T.);
#41=FACE_BOUND('',#107,.T.);
#42=FACE_BOUND('',#109,.T.);
#43=FACE_BOUND('',#111,.T.);
#44=FACE_BOUND('',#113,.T.);
#45=FACE_BOUND('',#115,.T.);
#46=FACE_BOUND('',#118,.T.);
#47=FACE_BOUND('',#120,.T.);
#48=FACE_BOUND('',#122,.T.);
#49=FACE_BOUND('',#124,.T.);
#50=CONICAL_SURFACE('',#305,4.39841353602472,9.1381468317701);
#51=CONICAL_SURFACE('',#307,5.75,45.);
#52=CONICAL_SURFACE('',#325,5.475,45.0000000000001);
#53=CONICAL_SURFACE('',#339,4.3971856325607,9.13275303647673);
#54=CONICAL_SURFACE('',#348,3.4625,59.9999999999999);
#55=FACE_OUTER_BOUND('',#79,.T.);
#56=FACE_OUTER_BOUND('',#80,.T.);
#57=FACE_OUTER_BOUND('',#82,.T.);
#58=FACE_OUTER_BOUND('',#84,.T.);
#59=FACE_OUTER_BOUND('',#86,.T.);
#60=FACE_OUTER_BOUND('',#88,.T.);
#61=FACE_OUTER_BOUND('',#90,.T.);
#62=FACE_OUTER_BOUND('',#92,.T.);
#63=FACE_OUTER_BOUND('',#94,.T.);
#64=FACE_OUTER_BOUND('',#96,.T.);
#65=FACE_OUTER_BOUND('',#98,.T.);
#66=FACE_OUTER_BOUND('',#100,.T.);
#67=FACE_OUTER_BOUND('',#102,.T.);
#68=FACE_OUTER_BOUND('',#104,.T.);
#69=FACE_OUTER_BOUND('',#106,.T.);
#70=FACE_OUTER_BOUND('',#108,.T.);
#71=FACE_OUTER_BOUND('',#110,.T.);
#72=FACE_OUTER_BOUND('',#112,.T.);
#73=FACE_OUTER_BOUND('',#114,.T.);
#74=FACE_OUTER_BOUND('',#116,.T.);
#75=FACE_OUTER_BOUND('',#117,.T.);
#76=FACE_OUTER_BOUND('',#119,.T.);
#77=FACE_OUTER_BOUND('',#121,.T.);
#78=FACE_OUTER_BOUND('',#123,.T.);
#79=EDGE_LOOP('',(#206,#207,#208,#209));
#80=EDGE_LOOP('',(#210));
#81=EDGE_LOOP('',(#211));
#82=EDGE_LOOP('',(#212));
#83=EDGE_LOOP('',(#213));
#84=EDGE_LOOP('',(#214));
#85=EDGE_LOOP('',(#215));
#86=EDGE_LOOP('',(#216));
#87=EDGE_LOOP('',(#217));
#88=EDGE_LOOP('',(#218));
#89=EDGE_LOOP('',(#219));
#90=EDGE_LOOP('',(#220));
#91=EDGE_LOOP('',(#221));
#92=EDGE_LOOP('',(#222));
#93=EDGE_LOOP('',(#223));
#94=EDGE_LOOP('',(#224));
#95=EDGE_LOOP('',(#225));
#96=EDGE_LOOP('',(#226));
#97=EDGE_LOOP('',(#227));
#98=EDGE_LOOP('',(#228));
#99=EDGE_LOOP('',(#229));
#100=EDGE_LOOP('',(#230));
#101=EDGE_LOOP('',(#231));
#102=EDGE_LOOP('',(#232));
#103=EDGE_LOOP('',(#233));
#104=EDGE_LOOP('',(#234));
#105=EDGE_LOOP('',(#235));
#106=EDGE_LOOP('',(#236));
#107=EDGE_LOOP('',(#237));
#108=EDGE_LOOP('',(#238));
#109=EDGE_LOOP('',(#239));
#110=EDGE_LOOP('',(#240));
#111=EDGE_LOOP('',(#241));
#112=EDGE_LOOP('',(#242));
#113=EDGE_LOOP('',(#243));
#114=EDGE_LOOP('',(#244,#245));
#115=EDGE_LOOP('',(#246));
#116=EDGE_LOOP('',(#247,#248,#249,#250,#251,#252));
#117=EDGE_LOOP('',(#253,#254));
#118=EDGE_LOOP('',(#255));
#119=EDGE_LOOP('',(#256));
#120=EDGE_LOOP('',(#257));
#121=EDGE_LOOP('',(#258));
#122=EDGE_LOOP('',(#259));
#123=EDGE_LOOP('',(#260));
#124=EDGE_LOOP('',(#261));
#125=CIRCLE('',#302,0.300000000000002);
#126=CIRCLE('',#303,4.15592041654078);
#127=CIRCLE('',#304,4.4509604104546);
#128=CIRCLE('',#306,4.69682707204944);
#129=CIRCLE('',#308,6.);
#130=CIRCLE('',#309,5.5);
#131=CIRCLE('',#311,5.05);
#132=CIRCLE('',#313,6.);
#133=CIRCLE('',#315,4.05);
#134=CIRCLE('',#317,4.05);
#135=CIRCLE('',#319,4.15);
#136=CIRCLE('',#320,4.95);
#137=CIRCLE('',#322,4.95);
#138=CIRCLE('',#324,3.925);
#139=CIRCLE('',#326,6.);
#140=CIRCLE('',#328,6.);
#141=CIRCLE('',#330,4.875);
#142=CIRCLE('',#332,4.875);
#143=CIRCLE('',#335,4.45);
#144=CIRCLE('',#338,4.6943712651214);
#145=CIRCLE('',#340,4.1);
#146=CIRCLE('',#341,4.1);
#147=CIRCLE('',#342,3.85337647451824);
#148=CIRCLE('',#343,3.85337647451824);
#149=CIRCLE('',#345,3.);
#150=CIRCLE('',#347,3.);
#151=CIRCLE('',#349,3.925);
#152=VERTEX_POINT('',#455);
#153=VERTEX_POINT('',#456);
#154=VERTEX_POINT('',#461);
#155=VERTEX_POINT('',#464);
#156=VERTEX_POINT('',#466);
#157=VERTEX_POINT('',#469);
#158=VERTEX_POINT('',#472);
#159=VERTEX_POINT('',#475);
#160=VERTEX_POINT('',#478);
#161=VERTEX_POINT('',#481);
#162=VERTEX_POINT('',#483);
#163=VERTEX_POINT('',#486);
#164=VERTEX_POINT('',#489);
#165=VERTEX_POINT('',#492);
#166=VERTEX_POINT('',#495);
#167=VERTEX_POINT('',#498);
#168=VERTEX_POINT('',#501);
#169=VERTEX_POINT('',#505);
#170=VERTEX_POINT('',#509);
#171=VERTEX_POINT('',#512);
#172=VERTEX_POINT('',#513);
#173=VERTEX_POINT('',#543);
#174=VERTEX_POINT('',#544);
#175=VERTEX_POINT('',#551);
#176=VERTEX_POINT('',#554);
#177=VERTEX_POINT('',#557);
#178=EDGE_CURVE('',#152,#153,#125,.T.);
#179=EDGE_CURVE('',#153,#153,#126,.T.);
#180=EDGE_CURVE('',#152,#152,#127,.T.);
#181=EDGE_CURVE('',#154,#154,#128,.T.);
#182=EDGE_CURVE('',#155,#155,#129,.T.);
#183=EDGE_CURVE('',#156,#156,#130,.T.);
#184=EDGE_CURVE('',#157,#157,#131,.T.);
#185=EDGE_CURVE('',#158,#158,#132,.T.);
#186=EDGE_CURVE('',#159,#159,#133,.T.);
#187=EDGE_CURVE('',#160,#160,#134,.T.);
#188=EDGE_CURVE('',#161,#161,#135,.T.);
#189=EDGE_CURVE('',#162,#162,#136,.T.);
#190=EDGE_CURVE('',#163,#163,#137,.T.);
#191=EDGE_CURVE('',#164,#164,#138,.T.);
#192=EDGE_CURVE('',#165,#165,#139,.T.);
#193=EDGE_CURVE('',#166,#166,#140,.T.);
#194=EDGE_CURVE('',#167,#167,#141,.T.);
#195=EDGE_CURVE('',#168,#168,#142,.T.);
#196=EDGE_CURVE('',#169,#169,#143,.T.);
#197=EDGE_CURVE('',#170,#170,#144,.T.);
#198=EDGE_CURVE('',#171,#172,#145,.T.);
#199=EDGE_CURVE('',#172,#171,#146,.T.);
#200=EDGE_CURVE('',#173,#174,#147,.T.);
#201=EDGE_CURVE('',#174,#173,#148,.T.);
#202=EDGE_CURVE('',#174,#172,#15,.T.);
#203=EDGE_CURVE('',#175,#175,#149,.T.);
#204=EDGE_CURVE('',#176,#176,#150,.T.);
#205=EDGE_CURVE('',#177,#177,#151,.T.);
#206=ORIENTED_EDGE('',*,*,#178,.T.);
#207=ORIENTED_EDGE('',*,*,#179,.T.);
#208=ORIENTED_EDGE('',*,*,#178,.F.);
#209=ORIENTED_EDGE('',*,*,#180,.T.);
#210=ORIENTED_EDGE('',*,*,#181,.T.);
#211=ORIENTED_EDGE('',*,*,#179,.F.);
#212=ORIENTED_EDGE('',*,*,#182,.T.);
#213=ORIENTED_EDGE('',*,*,#183,.T.);
#214=ORIENTED_EDGE('',*,*,#183,.F.);
#215=ORIENTED_EDGE('',*,*,#184,.F.);
#216=ORIENTED_EDGE('',*,*,#185,.T.);
#217=ORIENTED_EDGE('',*,*,#182,.F.);
#218=ORIENTED_EDGE('',*,*,#184,.T.);
#219=ORIENTED_EDGE('',*,*,#186,.T.);
#220=ORIENTED_EDGE('',*,*,#187,.F.);
#221=ORIENTED_EDGE('',*,*,#186,.F.);
#222=ORIENTED_EDGE('',*,*,#188,.T.);
#223=ORIENTED_EDGE('',*,*,#189,.T.);
#224=ORIENTED_EDGE('',*,*,#190,.F.);
#225=ORIENTED_EDGE('',*,*,#189,.F.);
#226=ORIENTED_EDGE('',*,*,#188,.F.);
#227=ORIENTED_EDGE('',*,*,#191,.T.);
#228=ORIENTED_EDGE('',*,*,#192,.F.);
#229=ORIENTED_EDGE('',*,*,#190,.T.);
#230=ORIENTED_EDGE('',*,*,#193,.F.);
#231=ORIENTED_EDGE('',*,*,#192,.T.);
#232=ORIENTED_EDGE('',*,*,#194,.F.);
#233=ORIENTED_EDGE('',*,*,#193,.T.);
#234=ORIENTED_EDGE('',*,*,#195,.F.);
#235=ORIENTED_EDGE('',*,*,#194,.T.);
#236=ORIENTED_EDGE('',*,*,#185,.F.);
#237=ORIENTED_EDGE('',*,*,#195,.T.);
#238=ORIENTED_EDGE('',*,*,#196,.F.);
#239=ORIENTED_EDGE('',*,*,#187,.T.);
#240=ORIENTED_EDGE('',*,*,#181,.F.);
#241=ORIENTED_EDGE('',*,*,#196,.T.);
#242=ORIENTED_EDGE('',*,*,#180,.F.);
#243=ORIENTED_EDGE('',*,*,#197,.F.);
#244=ORIENTED_EDGE('',*,*,#198,.F.);
#245=ORIENTED_EDGE('',*,*,#199,.F.);
#246=ORIENTED_EDGE('',*,*,#197,.T.);
#247=ORIENTED_EDGE('',*,*,#200,.F.);
#248=ORIENTED_EDGE('',*,*,#201,.F.);
#249=ORIENTED_EDGE('',*,*,#202,.T.);
#250=ORIENTED_EDGE('',*,*,#199,.T.);
#251=ORIENTED_EDGE('',*,*,#198,.T.);
#252=ORIENTED_EDGE('',*,*,#202,.F.);
#253=ORIENTED_EDGE('',*,*,#200,.T.);
#254=ORIENTED_EDGE('',*,*,#201,.T.);
#255=ORIENTED_EDGE('',*,*,#203,.F.);
#256=ORIENTED_EDGE('',*,*,#204,.F.);
#257=ORIENTED_EDGE('',*,*,#203,.T.);
#258=ORIENTED_EDGE('',*,*,#205,.F.);
#259=ORIENTED_EDGE('',*,*,#204,.T.);
#260=ORIENTED_EDGE('',*,*,#191,.F.);
#261=ORIENTED_EDGE('',*,*,#205,.T.);
#262=TOROIDAL_SURFACE('',#301,4.45211290300011,0.3);
#263=TOROIDAL_SURFACE('',#314,5.05,1.);
#264=TOROIDAL_SURFACE('',#318,4.15,0.8);
#265=TOROIDAL_SURFACE('',#329,7.31731897034406,2.75);
#266=TOROIDAL_SURFACE('',#333,7.27972387780518,2.75);
#267=TOROIDAL_SURFACE('',#336,4.45,0.250000000000002);
#268=TOROIDAL_SURFACE('',#337,4.45,0.250000000000002);
#269=ADVANCED_FACE('',(#55),#262,.F.);
#270=ADVANCED_FACE('',(#56,#28),#50,.T.);
#271=ADVANCED_FACE('',(#57,#29),#51,.T.);
#272=ADVANCED_FACE('',(#58,#30),#24,.T.);
#273=ADVANCED_FACE('',(#59,#31),#17,.T.);
#274=ADVANCED_FACE('',(#60,#32),#263,.F.);
#275=ADVANCED_FACE('',(#61,#33),#18,.T.);
#276=ADVANCED_FACE('',(#62,#34),#264,.T.);
#277=ADVANCED_FACE('',(#63,#35),#19,.T.);
#278=ADVANCED_FACE('',(#64,#36),#25,.T.);
#279=ADVANCED_FACE('',(#65,#37),#52,.T.);
#280=ADVANCED_FACE('',(#66,#38),#20,.T.);
#281=ADVANCED_FACE('',(#67,#39),#265,.F.);
#282=ADVANCED_FACE('',(#68,#40),#21,.T.);
#283=ADVANCED_FACE('',(#69,#41),#266,.F.);
#284=ADVANCED_FACE('',(#70,#42),#26,.T.);
#285=ADVANCED_FACE('',(#71,#43),#267,.T.);
#286=ADVANCED_FACE('',(#72,#44),#268,.T.);
#287=ADVANCED_FACE('',(#73,#45),#53,.T.);
#288=ADVANCED_FACE('',(#74),#16,.F.);
#289=ADVANCED_FACE('',(#75,#46),#27,.T.);
#290=ADVANCED_FACE('',(#76,#47),#22,.F.);
#291=ADVANCED_FACE('',(#77,#48),#54,.F.);
#292=ADVANCED_FACE('',(#78,#49),#23,.F.);
#293=CLOSED_SHELL('',(#269,#270,#271,#272,#273,#274,#275,#276,#277,#278,
#279,#280,#281,#282,#283,#284,#285,#286,#287,#288,#289,#290,#291,#292));
#294=DATE_TIME_ROLE('creation_date');
#295=APPLIED_DATE_AND_TIME_ASSIGNMENT(#296,#294,(#574));
#296=DATE_AND_TIME(#297,#298);
#297=CALENDAR_DATE(2012,19,6);
#298=LOCAL_TIME(8,17,37.,#299);
#299=COORDINATED_UNIVERSAL_TIME_OFFSET(0,0,.BEHIND.);
#300=AXIS2_PLACEMENT_3D('placement',#453,#351,#352);
#301=AXIS2_PLACEMENT_3D('',#454,#353,#354);
#302=AXIS2_PLACEMENT_3D('',#457,#355,#356);
#303=AXIS2_PLACEMENT_3D('',#458,#357,#358);
#304=AXIS2_PLACEMENT_3D('',#459,#359,#360);
#305=AXIS2_PLACEMENT_3D('',#460,#361,#362);
#306=AXIS2_PLACEMENT_3D('',#462,#363,#364);
#307=AXIS2_PLACEMENT_3D('',#463,#365,#366);
#308=AXIS2_PLACEMENT_3D('',#465,#367,#368);
#309=AXIS2_PLACEMENT_3D('',#467,#369,#370);
#310=AXIS2_PLACEMENT_3D('',#468,#371,#372);
#311=AXIS2_PLACEMENT_3D('',#470,#373,#374);
#312=AXIS2_PLACEMENT_3D('',#471,#375,#376);
#313=AXIS2_PLACEMENT_3D('',#473,#377,#378);
#314=AXIS2_PLACEMENT_3D('',#474,#379,#380);
#315=AXIS2_PLACEMENT_3D('',#476,#381,#382);
#316=AXIS2_PLACEMENT_3D('',#477,#383,#384);
#317=AXIS2_PLACEMENT_3D('',#479,#385,#386);
#318=AXIS2_PLACEMENT_3D('',#480,#387,#388);
#319=AXIS2_PLACEMENT_3D('',#482,#389,#390);
#320=AXIS2_PLACEMENT_3D('',#484,#391,#392);
#321=AXIS2_PLACEMENT_3D('',#485,#393,#394);
#322=AXIS2_PLACEMENT_3D('',#487,#395,#396);
#323=AXIS2_PLACEMENT_3D('',#488,#397,#398);
#324=AXIS2_PLACEMENT_3D('',#490,#399,#400);
#325=AXIS2_PLACEMENT_3D('',#491,#401,#402);
#326=AXIS2_PLACEMENT_3D('',#493,#403,#404);
#327=AXIS2_PLACEMENT_3D('',#494,#405,#406);
#328=AXIS2_PLACEMENT_3D('',#496,#407,#408);
#329=AXIS2_PLACEMENT_3D('',#497,#409,#410);
#330=AXIS2_PLACEMENT_3D('',#499,#411,#412);
#331=AXIS2_PLACEMENT_3D('',#500,#413,#414);
#332=AXIS2_PLACEMENT_3D('',#502,#415,#416);
#333=AXIS2_PLACEMENT_3D('',#503,#417,#418);
#334=AXIS2_PLACEMENT_3D('',#504,#419,#420);
#335=AXIS2_PLACEMENT_3D('',#506,#421,#422);
#336=AXIS2_PLACEMENT_3D('',#507,#423,#424);
#337=AXIS2_PLACEMENT_3D('',#508,#425,#426);
#338=AXIS2_PLACEMENT_3D('',#510,#427,#428);
#339=AXIS2_PLACEMENT_3D('',#511,#429,#430);
#340=AXIS2_PLACEMENT_3D('',#514,#431,#432);
#341=AXIS2_PLACEMENT_3D('',#515,#433,#434);
#342=AXIS2_PLACEMENT_3D('',#545,#435,#436);
#343=AXIS2_PLACEMENT_3D('',#546,#437,#438);
#344=AXIS2_PLACEMENT_3D('',#550,#439,#440);
#345=AXIS2_PLACEMENT_3D('',#552,#441,#442);
#346=AXIS2_PLACEMENT_3D('',#553,#443,#444);
#347=AXIS2_PLACEMENT_3D('',#555,#445,#446);
#348=AXIS2_PLACEMENT_3D('',#556,#447,#448);
#349=AXIS2_PLACEMENT_3D('',#558,#449,#450);
#350=AXIS2_PLACEMENT_3D('',#559,#451,#452);
#351=DIRECTION('axis',(0.,0.,1.));
#352=DIRECTION('refdir',(1.,0.,0.));
#353=DIRECTION('center_axis',(-1.,0.,0.));
#354=DIRECTION('ref_axis',(0.,0.,1.));
#355=DIRECTION('center_axis',(3.92705185191515E-16,-0.00081182891061134,
-0.999999670466856));
#356=DIRECTION('ref_axis',(0.999992620866844,-0.00384164055243956,3.11875589277349E-6));
#357=DIRECTION('center_axis',(1.,0.,0.));
#358=DIRECTION('ref_axis',(0.,0.,1.));
#359=DIRECTION('center_axis',(-1.,0.,0.));
#360=DIRECTION('ref_axis',(0.,0.,1.));
#361=DIRECTION('center_axis',(-1.,0.,0.));
#362=DIRECTION('ref_axis',(0.,1.,0.));
#363=DIRECTION('center_axis',(1.,0.,0.));
#364=DIRECTION('ref_axis',(0.,1.,0.));
#365=DIRECTION('center_axis',(-1.,0.,0.));
#366=DIRECTION('ref_axis',(0.,-1.,0.));
#367=DIRECTION('center_axis',(1.,0.,0.));
#368=DIRECTION('ref_axis',(0.,-1.,0.));
#369=DIRECTION('center_axis',(-1.,0.,0.));
#370=DIRECTION('ref_axis',(0.,-1.,0.));
#371=DIRECTION('center_axis',(1.,0.,0.));
#372=DIRECTION('ref_axis',(0.,0.,-1.));
#373=DIRECTION('center_axis',(1.,0.,0.));
#374=DIRECTION('ref_axis',(0.,-1.,1.22464679914735E-16));
#375=DIRECTION('center_axis',(1.,0.,0.));
#376=DIRECTION('ref_axis',(0.,1.,0.));
#377=DIRECTION('center_axis',(1.,0.,0.));
#378=DIRECTION('ref_axis',(0.,1.,0.));
#379=DIRECTION('center_axis',(1.,0.,0.));
#380=DIRECTION('ref_axis',(0.,0.,-1.));
#381=DIRECTION('center_axis',(-1.,0.,0.));
#382=DIRECTION('ref_axis',(0.,-1.,1.22464679914735E-16));
#383=DIRECTION('center_axis',(1.,0.,0.));
#384=DIRECTION('ref_axis',(0.,1.,0.));
#385=DIRECTION('center_axis',(1.,0.,0.));
#386=DIRECTION('ref_axis',(0.,1.,0.));
#387=DIRECTION('center_axis',(1.,0.,0.));
#388=DIRECTION('ref_axis',(0.,0.,-1.));
#389=DIRECTION('center_axis',(1.,0.,0.));
#390=DIRECTION('ref_axis',(0.,-1.,1.22464679914735E-16));
#391=DIRECTION('center_axis',(-1.,0.,0.));
#392=DIRECTION('ref_axis',(0.,-1.,1.22464679914735E-16));
#393=DIRECTION('center_axis',(1.,0.,0.));
#394=DIRECTION('ref_axis',(0.,1.,0.));
#395=DIRECTION('center_axis',(1.,0.,0.));
#396=DIRECTION('ref_axis',(0.,1.,0.));
#397=DIRECTION('center_axis',(-1.,0.,0.));
#398=DIRECTION('ref_axis',(0.,0.,1.));
#399=DIRECTION('center_axis',(1.,0.,0.));
#400=DIRECTION('ref_axis',(0.,1.,0.));
#401=DIRECTION('center_axis',(1.,0.,0.));
#402=DIRECTION('ref_axis',(0.,1.,0.));
#403=DIRECTION('center_axis',(1.,0.,0.));
#404=DIRECTION('ref_axis',(0.,1.,0.));
#405=DIRECTION('center_axis',(1.,0.,0.));
#406=DIRECTION('ref_axis',(0.,1.,0.));
#407=DIRECTION('center_axis',(1.,0.,0.));
#408=DIRECTION('ref_axis',(0.,1.,0.));
#409=DIRECTION('center_axis',(1.,0.,0.));
#410=DIRECTION('ref_axis',(0.,0.,-1.));
#411=DIRECTION('center_axis',(1.,0.,0.));
#412=DIRECTION('ref_axis',(0.,1.,0.));
#413=DIRECTION('center_axis',(1.,0.,0.));
#414=DIRECTION('ref_axis',(0.,1.,0.));
#415=DIRECTION('center_axis',(1.,0.,0.));
#416=DIRECTION('ref_axis',(0.,1.,0.));
#417=DIRECTION('center_axis',(1.,0.,0.));
#418=DIRECTION('ref_axis',(0.,0.,-1.));
#419=DIRECTION('center_axis',(-1.,0.,0.));
#420=DIRECTION('ref_axis',(0.,0.,1.));
#421=DIRECTION('center_axis',(1.,0.,0.));
#422=DIRECTION('ref_axis',(0.,1.,0.));
#423=DIRECTION('center_axis',(1.,0.,0.));
#424=DIRECTION('ref_axis',(0.,0.,-1.));
#425=DIRECTION('center_axis',(1.,0.,0.));
#426=DIRECTION('ref_axis',(0.,0.,-1.));
#427=DIRECTION('center_axis',(1.,0.,0.));
#428=DIRECTION('ref_axis',(0.,1.,0.));
#429=DIRECTION('center_axis',(-1.,0.,0.));
#430=DIRECTION('ref_axis',(0.,1.,0.));
#431=DIRECTION('center_axis',(1.,0.,0.));
#432=DIRECTION('ref_axis',(0.,1.,0.));
#433=DIRECTION('center_axis',(1.,0.,0.));
#434=DIRECTION('ref_axis',(0.,1.,0.));
#435=DIRECTION('center_axis',(1.,0.,0.));
#436=DIRECTION('ref_axis',(0.,1.,0.));
#437=DIRECTION('center_axis',(1.,0.,0.));
#438=DIRECTION('ref_axis',(0.,1.,0.));
#439=DIRECTION('center_axis',(1.,0.,0.));
#440=DIRECTION('ref_axis',(0.,0.,-1.));
#441=DIRECTION('center_axis',(1.,0.,0.));
#442=DIRECTION('ref_axis',(0.,1.,0.));
#443=DIRECTION('center_axis',(1.,0.,0.));
#444=DIRECTION('ref_axis',(0.,1.,0.));
#445=DIRECTION('center_axis',(1.,0.,0.));
#446=DIRECTION('ref_axis',(0.,1.,0.));
#447=DIRECTION('center_axis',(-1.,0.,0.));
#448=DIRECTION('ref_axis',(0.,1.,0.));
#449=DIRECTION('center_axis',(1.,0.,0.));
#450=DIRECTION('ref_axis',(0.,1.,0.));
#451=DIRECTION('center_axis',(1.,0.,0.));
#452=DIRECTION('ref_axis',(0.,1.,0.));
#453=CARTESIAN_POINT('',(0.,0.,0.));
#454=CARTESIAN_POINT('Origin',(40.5000040585232,2.77555756156289E-16,-3.72965547335014E-16));
#455=CARTESIAN_POINT('',(40.8000018447833,4.45095894371562,-0.00361341834119316));
#456=CARTESIAN_POINT('',(40.4523594264537,4.15591904702726,-0.00337389634434747));
#457=CARTESIAN_POINT('Origin',(40.5000040585232,4.45211143588135,-0.00361435396796099));
#458=CARTESIAN_POINT('Origin',(40.4523594264537,2.77555756156289E-16,-3.72965547335014E-16));
#459=CARTESIAN_POINT('Origin',(40.8000018447833,2.77555756156289E-16,-3.72965547335014E-16));
#460=CARTESIAN_POINT('Origin',(38.944851930029,0.,0.));
#461=CARTESIAN_POINT('',(37.0897038600579,4.69682707204944,0.));
#462=CARTESIAN_POINT('Origin',(37.0897038600579,0.,0.));
#463=CARTESIAN_POINT('Origin',(23.05,0.,0.));
#464=CARTESIAN_POINT('',(22.8,6.,7.34788079488412E-16));
#465=CARTESIAN_POINT('Origin',(22.8,0.,0.));
#466=CARTESIAN_POINT('',(23.3,5.5,-6.73555739531045E-16));
#467=CARTESIAN_POINT('Origin',(23.3,0.,0.));
#468=CARTESIAN_POINT('Origin',(23.3,5.025,0.));
#469=CARTESIAN_POINT('',(23.3,5.05,0.));
#470=CARTESIAN_POINT('Origin',(23.3,0.,0.));
#471=CARTESIAN_POINT('Origin',(17.425,0.,0.));
#472=CARTESIAN_POINT('',(11.55,6.,0.));
#473=CARTESIAN_POINT('Origin',(11.55,0.,0.));
#474=CARTESIAN_POINT('Origin',(24.3,0.,0.));
#475=CARTESIAN_POINT('',(24.3,4.05,-9.91963907309356E-16));
#476=CARTESIAN_POINT('Origin',(24.3,0.,0.));
#477=CARTESIAN_POINT('Origin',(30.05,0.,0.));
#478=CARTESIAN_POINT('',(36.8,4.05,0.));
#479=CARTESIAN_POINT('Origin',(36.8,0.,0.));
#480=CARTESIAN_POINT('Origin',(0.799999999999999,0.,0.));
#481=CARTESIAN_POINT('',(-1.11022302462516E-15,4.15,0.));
#482=CARTESIAN_POINT('Origin',(-1.11022302462516E-15,0.,0.));
#483=CARTESIAN_POINT('',(0.799999999999999,4.95,-1.21240033115588E-15));
#484=CARTESIAN_POINT('Origin',(0.799999999999999,0.,0.));
#485=CARTESIAN_POINT('Origin',(2.525,0.,0.));
#486=CARTESIAN_POINT('',(5.05,4.95,0.));
#487=CARTESIAN_POINT('Origin',(5.05,0.,0.));
#488=CARTESIAN_POINT('Origin',(-1.11022302462516E-15,4.4375,0.));
#489=CARTESIAN_POINT('',(-1.11022302462516E-15,3.925,0.));
#490=CARTESIAN_POINT('Origin',(-1.11022302462516E-15,0.,0.));
#491=CARTESIAN_POINT('Origin',(5.575,0.,0.));
#492=CARTESIAN_POINT('',(6.1,6.,0.));
#493=CARTESIAN_POINT('Origin',(6.1,0.,0.));
#494=CARTESIAN_POINT('Origin',(6.55,0.,0.));
#495=CARTESIAN_POINT('',(7.,6.,0.));
#496=CARTESIAN_POINT('Origin',(7.,0.,0.));
#497=CARTESIAN_POINT('Origin',(9.41395334055397,0.,0.));
#498=CARTESIAN_POINT('',(8.15,4.875,0.));
#499=CARTESIAN_POINT('Origin',(8.15,0.,0.));
#500=CARTESIAN_POINT('Origin',(9.3,0.,0.));
#501=CARTESIAN_POINT('',(10.45,4.875,0.));
#502=CARTESIAN_POINT('Origin',(10.45,0.,0.));
#503=CARTESIAN_POINT('Origin',(9.11590739769924,0.,0.));
#504=CARTESIAN_POINT('Origin',(36.8,4.25,0.));
#505=CARTESIAN_POINT('',(36.8,4.45,0.));
#506=CARTESIAN_POINT('Origin',(36.8,0.,0.));
#507=CARTESIAN_POINT('Origin',(37.05,0.,0.));
#508=CARTESIAN_POINT('Origin',(41.05,0.,0.));
#509=CARTESIAN_POINT('',(41.1027511590675,4.6943712651214,0.));
#510=CARTESIAN_POINT('Origin',(41.1027511590675,0.,0.));
#511=CARTESIAN_POINT('Origin',(42.9513755795338,0.,0.));
#512=CARTESIAN_POINT('',(44.8,4.1,0.));
#513=CARTESIAN_POINT('',(44.8,0.,4.1));
#514=CARTESIAN_POINT('Origin',(44.8,0.,0.));
#515=CARTESIAN_POINT('Origin',(44.8,0.,0.));
#516=CARTESIAN_POINT('Ctrl Pts',(44.8,0.,4.1));
#517=CARTESIAN_POINT('Ctrl Pts',(44.8,-4.1,4.1));
#518=CARTESIAN_POINT('Ctrl Pts',(44.8,-4.1,0.));
#519=CARTESIAN_POINT('Ctrl Pts',(44.8,-4.1,-4.1));
#520=CARTESIAN_POINT('Ctrl Pts',(44.8,0.,-4.1));
#521=CARTESIAN_POINT('Ctrl Pts',(44.8,4.1,-4.1));
#522=CARTESIAN_POINT('Ctrl Pts',(44.8,4.1,0.));
#523=CARTESIAN_POINT('Ctrl Pts',(44.8,4.1,4.1));
#524=CARTESIAN_POINT('Ctrl Pts',(44.8,0.,4.1));
#525=CARTESIAN_POINT('Ctrl Pts',(46.6714594548841,0.,5.70040089307345));
#526=CARTESIAN_POINT('Ctrl Pts',(46.6714594548841,-5.70040089307345,5.70040089307345));
#527=CARTESIAN_POINT('Ctrl Pts',(46.6714594548841,-5.70040089307345,0.));
#528=CARTESIAN_POINT('Ctrl Pts',(46.6714594548841,-5.70040089307345,-5.70040089307345));
#529=CARTESIAN_POINT('Ctrl Pts',(46.6714594548841,0.,-5.70040089307345));
#530=CARTESIAN_POINT('Ctrl Pts',(46.6714594548841,5.70040089307345,-5.70040089307345));
#531=CARTESIAN_POINT('Ctrl Pts',(46.6714594548841,5.70040089307345,0.));
#532=CARTESIAN_POINT('Ctrl Pts',(46.6714594548841,5.70040089307345,5.70040089307345));
#533=CARTESIAN_POINT('Ctrl Pts',(46.6714594548841,0.,5.70040089307345));
#534=CARTESIAN_POINT('Ctrl Pts',(48.3,0.,3.85337647451824));
#535=CARTESIAN_POINT('Ctrl Pts',(48.3,-3.85337647451824,3.85337647451824));
#536=CARTESIAN_POINT('Ctrl Pts',(48.3,-3.85337647451824,0.));
#537=CARTESIAN_POINT('Ctrl Pts',(48.3,-3.85337647451824,-3.85337647451824));
#538=CARTESIAN_POINT('Ctrl Pts',(48.3,0.,-3.85337647451824));
#539=CARTESIAN_POINT('Ctrl Pts',(48.3,3.85337647451824,-3.85337647451824));
#540=CARTESIAN_POINT('Ctrl Pts',(48.3,3.85337647451824,0.));
#541=CARTESIAN_POINT('Ctrl Pts',(48.3,3.85337647451824,3.85337647451824));
#542=CARTESIAN_POINT('Ctrl Pts',(48.3,0.,3.85337647451824));
#543=CARTESIAN_POINT('',(48.3,3.85337647451824,0.));
#544=CARTESIAN_POINT('',(48.3,0.,3.85337647451824));
#545=CARTESIAN_POINT('Origin',(48.3,0.,0.));
#546=CARTESIAN_POINT('Origin',(48.3,0.,0.));
#547=CARTESIAN_POINT('Ctrl Pts',(48.3,0.,3.85337647451824));
#548=CARTESIAN_POINT('Ctrl Pts',(46.6714594548841,0.,5.70040089307345));
#549=CARTESIAN_POINT('Ctrl Pts',(44.8,0.,4.1));
#550=CARTESIAN_POINT('Origin',(48.3,3.42668823725912,0.));
#551=CARTESIAN_POINT('',(48.3,3.,0.));
#552=CARTESIAN_POINT('Origin',(48.3,0.,0.));
#553=CARTESIAN_POINT('Origin',(34.4170244995002,0.,0.));
#554=CARTESIAN_POINT('',(20.5340489990004,3.,0.));
#555=CARTESIAN_POINT('Origin',(20.5340489990004,0.,0.));
#556=CARTESIAN_POINT('Origin',(20.2670244995002,0.,0.));
#557=CARTESIAN_POINT('',(20.,3.925,0.));
#558=CARTESIAN_POINT('Origin',(20.,0.,0.));
#559=CARTESIAN_POINT('Origin',(10.,0.,0.));
#560=UNCERTAINTY_MEASURE_WITH_UNIT(LENGTH_MEASURE(0.01),#564,
'DISTANCE_ACCURACY_VALUE',
'Maximum model space distance between geometric entities at asserted c
onnectivities');
#561=UNCERTAINTY_MEASURE_WITH_UNIT(LENGTH_MEASURE(1.E-6),#564,
'DISTANCE_ACCURACY_VALUE',
'Maximum model space distance between geometric entities at asserted c
onnectivities');
#562=(
GEOMETRIC_REPRESENTATION_CONTEXT(3)
GLOBAL_UNCERTAINTY_ASSIGNED_CONTEXT((#560))
GLOBAL_UNIT_ASSIGNED_CONTEXT((#564,#567,#565))
REPRESENTATION_CONTEXT('','3D')
);
#563=(
GEOMETRIC_REPRESENTATION_CONTEXT(3)
GLOBAL_UNCERTAINTY_ASSIGNED_CONTEXT((#561))
GLOBAL_UNIT_ASSIGNED_CONTEXT((#564,#567,#565))
REPRESENTATION_CONTEXT('','3D')
);
#564=(
LENGTH_UNIT()
NAMED_UNIT(*)
SI_UNIT(.MILLI.,.METRE.)
);
#565=(
NAMED_UNIT(*)
SI_UNIT($,.STERADIAN.)
SOLID_ANGLE_UNIT()
);
#566=DIMENSIONAL_EXPONENTS(0.,0.,0.,0.,0.,0.,0.);
#567=(
CONVERSION_BASED_UNIT('degree',#569)
NAMED_UNIT(#566)
PLANE_ANGLE_UNIT()
);
#568=(
NAMED_UNIT(*)
PLANE_ANGLE_UNIT()
SI_UNIT($,.RADIAN.)
);
#569=PLANE_ANGLE_MEASURE_WITH_UNIT(PLANE_ANGLE_MEASURE(0.01745329252),#568);
#570=SHAPE_DEFINITION_REPRESENTATION(#571,#572);
#571=PRODUCT_DEFINITION_SHAPE('',$,#574);
#572=SHAPE_REPRESENTATION('',(#300),#562);
#573=PRODUCT_DEFINITION_CONTEXT('part definition',#578,'design');
#574=PRODUCT_DEFINITION('25SFTF08SXZ','25SFTF08SXZ',#575,#573);
#575=PRODUCT_DEFINITION_FORMATION('',$,#580);
#576=PRODUCT_RELATED_PRODUCT_CATEGORY('25SFTF08SXZ','25SFTF08SXZ',(#580));
#577=APPLICATION_PROTOCOL_DEFINITION('international standard',
'automotive_design',2009,#578);
#578=APPLICATION_CONTEXT(
'Core Data for Automotive Mechanical Design Process');
#579=PRODUCT_CONTEXT('part definition',#578,'mechanical');
#580=PRODUCT('25SFTF08SXZ','25SFTF08SXZ','25SFTF06SXZ-76501',(#579));
#581=PRESENTATION_STYLE_ASSIGNMENT((#582));
#582=SURFACE_STYLE_USAGE(.BOTH.,#583);
#583=SURFACE_SIDE_STYLE('',(#584));
#584=SURFACE_STYLE_FILL_AREA(#585);
#585=FILL_AREA_STYLE('',(#586));
#586=FILL_AREA_STYLE_COLOUR('',#587);
#587=COLOUR_RGB('',0.87843137254902,0.874509803921569,0.858823529411765);
ENDSEC;
END-ISO-10303-21;
