ISO-10303-21;
HEADER;
FILE_DESCRIPTION(('STEP AP214'),'1');
FILE_NAME('cctmp_AB55F4E7-C375-458F-98B5-2494D48EB254_2022_02_21_15_20_41_0289..stp','2022-02-21T14:20:41',('Praher Valves GmbH'),('CADClick - www.CADClick.com'),'Spatial InterOp 3D',' ','unknown authorization');
FILE_SCHEMA(('AUTOMOTIVE_DESIGN'));
ENDSEC;
DATA;
#1=MECHANICAL_DESIGN_GEOMETRIC_PRESENTATION_REPRESENTATION(' ',(#10,#11,#12,#13,#14,#15,#16,#17,#18,#19,#20,#21,#22,#23,#24,#25,#26,#27,#28,#29),#6);
#2=PRODUCT_DEFINITION_CONTEXT('',#30,'design');
#3=APPLICATION_PROTOCOL_DEFINITION('INTERNATIONAL STANDARD','automotive_design',1994,#30);
#4=PRODUCT_CATEGORY_RELATIONSHIP('NONE','NONE',#31,#32);
#5=SHAPE_DEFINITION_REPRESENTATION(#33,#34);
#6= (GEOMETRIC_REPRESENTATION_CONTEXT(3)GLOBAL_UNCERTAINTY_ASSIGNED_CONTEXT((#37))GLOBAL_UNIT_ASSIGNED_CONTEXT((#39,#40,#41))REPRESENTATION_CONTEXT('NONE','WORKSPACE'));
#10=STYLED_ITEM('',(#43),#44);
#11=STYLED_ITEM('',(#45),#46);
#12=STYLED_ITEM('',(#47),#48);
#13=STYLED_ITEM('',(#49),#50);
#14=STYLED_ITEM('',(#51),#52);
#15=STYLED_ITEM('',(#53),#54);
#16=STYLED_ITEM('',(#55),#56);
#17=STYLED_ITEM('',(#57),#58);
#18=STYLED_ITEM('',(#59),#60);
#19=STYLED_ITEM('',(#61),#62);
#20=STYLED_ITEM('',(#63),#64);
#21=STYLED_ITEM('',(#65),#66);
#22=STYLED_ITEM('',(#67),#68);
#23=STYLED_ITEM('',(#69),#70);
#24=STYLED_ITEM('',(#71),#72);
#25=STYLED_ITEM('',(#73),#74);
#26=STYLED_ITEM('',(#75),#76);
#27=STYLED_ITEM('',(#77),#78);
#28=STYLED_ITEM('',(#79),#80);
#29=STYLED_ITEM('',(#81),#82);
#30=APPLICATION_CONTEXT(' ');
#31=PRODUCT_CATEGORY('part','NONE');
#32=PRODUCT_RELATED_PRODUCT_CATEGORY('detail',' ',(#83));
#33=PRODUCT_DEFINITION_SHAPE('NONE','NONE',#84);
#34=ADVANCED_BREP_SHAPE_REPRESENTATION('71277',(#82,#85),#6);
#37=UNCERTAINTY_MEASURE_WITH_UNIT(LENGTH_MEASURE(1.0E-006),#39,'','');
#39= (CONVERSION_BASED_UNIT('MILLIMETRE',#88)LENGTH_UNIT()NAMED_UNIT(#91));
#40= (NAMED_UNIT(#93)PLANE_ANGLE_UNIT()SI_UNIT($,.RADIAN.));
#41= (NAMED_UNIT(#93)SOLID_ANGLE_UNIT()SI_UNIT($,.STERADIAN.));
#43=PRESENTATION_STYLE_ASSIGNMENT((#99));
#44=ADVANCED_FACE('',(#100),#101,.T.);
#45=PRESENTATION_STYLE_ASSIGNMENT((#102));
#46=ADVANCED_FACE('',(#103),#104,.T.);
#47=PRESENTATION_STYLE_ASSIGNMENT((#105));
#48=ADVANCED_FACE('',(#106),#107,.T.);
#49=PRESENTATION_STYLE_ASSIGNMENT((#108));
#50=ADVANCED_FACE('',(#109),#110,.F.);
#51=PRESENTATION_STYLE_ASSIGNMENT((#111));
#52=ADVANCED_FACE('',(#112),#113,.F.);
#53=PRESENTATION_STYLE_ASSIGNMENT((#114));
#54=ADVANCED_FACE('',(#115),#116,.F.);
#55=PRESENTATION_STYLE_ASSIGNMENT((#117));
#56=ADVANCED_FACE('',(#118),#119,.F.);
#57=PRESENTATION_STYLE_ASSIGNMENT((#120));
#58=ADVANCED_FACE('',(#121),#122,.F.);
#59=PRESENTATION_STYLE_ASSIGNMENT((#123));
#60=ADVANCED_FACE('',(#124,#125),#126,.F.);
#61=PRESENTATION_STYLE_ASSIGNMENT((#127));
#62=ADVANCED_FACE('',(#128),#129,.F.);
#63=PRESENTATION_STYLE_ASSIGNMENT((#130));
#64=ADVANCED_FACE('',(#131,#132),#133,.F.);
#65=PRESENTATION_STYLE_ASSIGNMENT((#134));
#66=ADVANCED_FACE('',(#135,#136),#137,.F.);
#67=PRESENTATION_STYLE_ASSIGNMENT((#138));
#68=ADVANCED_FACE('',(#139),#140,.F.);
#69=PRESENTATION_STYLE_ASSIGNMENT((#141));
#70=ADVANCED_FACE('',(#142),#143,.F.);
#71=PRESENTATION_STYLE_ASSIGNMENT((#144));
#72=ADVANCED_FACE('',(#145),#146,.T.);
#73=PRESENTATION_STYLE_ASSIGNMENT((#147));
#74=ADVANCED_FACE('',(#148,#149),#150,.T.);
#75=PRESENTATION_STYLE_ASSIGNMENT((#151));
#76=ADVANCED_FACE('',(#152),#153,.T.);
#77=PRESENTATION_STYLE_ASSIGNMENT((#154));
#78=ADVANCED_FACE('',(#155),#156,.T.);
#79=PRESENTATION_STYLE_ASSIGNMENT((#157));
#80=ADVANCED_FACE('',(#158,#159),#160,.T.);
#81=PRESENTATION_STYLE_ASSIGNMENT((#161));
#82=MANIFOLD_SOLID_BREP('71277',#162);
#83=PRODUCT('71277','','PART--DESC',(#163));
#84=PRODUCT_DEFINITION('','NONE',#164,#2);
#85=AXIS2_PLACEMENT_3D('',#165,#166,#167);
#88=LENGTH_MEASURE_WITH_UNIT(LENGTH_MEASURE(1.0),#168);
#91=DIMENSIONAL_EXPONENTS(1.0,0.0,0.0,0.0,0.0,0.0,0.0);
#93=DIMENSIONAL_EXPONENTS(0.0,0.0,0.0,0.0,0.0,0.0,0.0);
#99=SURFACE_STYLE_USAGE(.BOTH.,#169);
#100=FACE_OUTER_BOUND('',#170,.T.);
#101=CYLINDRICAL_SURFACE('',#171,52.5);
#102=SURFACE_STYLE_USAGE(.BOTH.,#172);
#103=FACE_OUTER_BOUND('',#173,.T.);
#104=CONICAL_SURFACE('',#174,26.25,0.982793723247329);
#105=SURFACE_STYLE_USAGE(.BOTH.,#175);
#106=FACE_OUTER_BOUND('',#176,.T.);
#107=CYLINDRICAL_SURFACE('',#177,45.0);
#108=SURFACE_STYLE_USAGE(.BOTH.,#178);
#109=FACE_OUTER_BOUND('',#179,.T.);
#110=CYLINDRICAL_SURFACE('',#180,42.455);
#111=SURFACE_STYLE_USAGE(.BOTH.,#181);
#112=FACE_OUTER_BOUND('',#182,.T.);
#113=CYLINDRICAL_SURFACE('',#183,42.465);
#114=SURFACE_STYLE_USAGE(.BOTH.,#184);
#115=FACE_OUTER_BOUND('',#185,.T.);
#116=CONICAL_SURFACE('',#186,21.2325,0.982793723247329);
#117=SURFACE_STYLE_USAGE(.BOTH.,#187);
#118=FACE_OUTER_BOUND('',#188,.T.);
#119=CYLINDRICAL_SURFACE('',#189,37.5);
#120=SURFACE_STYLE_USAGE(.BOTH.,#190);
#121=FACE_OUTER_BOUND('',#191,.T.);
#122=CYLINDRICAL_SURFACE('',#192,37.5);
#123=SURFACE_STYLE_USAGE(.BOTH.,#193);
#124=FACE_BOUND('',#194,.T.);
#125=FACE_OUTER_BOUND('',#195,.T.);
#126=PLANE('',#196);
#127=SURFACE_STYLE_USAGE(.BOTH.,#197);
#128=FACE_OUTER_BOUND('',#198,.T.);
#129=CONICAL_SURFACE('',#199,21.2325,0.982793723247329);
#130=SURFACE_STYLE_USAGE(.BOTH.,#200);
#131=FACE_BOUND('',#201,.T.);
#132=FACE_OUTER_BOUND('',#202,.T.);
#133=PLANE('',#203);
#134=SURFACE_STYLE_USAGE(.BOTH.,#204);
#135=FACE_BOUND('',#205,.T.);
#136=FACE_OUTER_BOUND('',#206,.T.);
#137=PLANE('',#207);
#138=SURFACE_STYLE_USAGE(.BOTH.,#208);
#139=FACE_OUTER_BOUND('',#209,.T.);
#140=CYLINDRICAL_SURFACE('',#210,42.465);
#141=SURFACE_STYLE_USAGE(.BOTH.,#211);
#142=FACE_OUTER_BOUND('',#212,.T.);
#143=CYLINDRICAL_SURFACE('',#213,42.455);
#144=SURFACE_STYLE_USAGE(.BOTH.,#214);
#145=FACE_OUTER_BOUND('',#215,.T.);
#146=CYLINDRICAL_SURFACE('',#216,45.0);
#147=SURFACE_STYLE_USAGE(.BOTH.,#217);
#148=FACE_BOUND('',#218,.T.);
#149=FACE_OUTER_BOUND('',#219,.T.);
#150=PLANE('',#220);
#151=SURFACE_STYLE_USAGE(.BOTH.,#221);
#152=FACE_OUTER_BOUND('',#222,.T.);
#153=CONICAL_SURFACE('',#223,26.25,0.982793723247329);
#154=SURFACE_STYLE_USAGE(.BOTH.,#224);
#155=FACE_OUTER_BOUND('',#225,.T.);
#156=CYLINDRICAL_SURFACE('',#226,52.5);
#157=SURFACE_STYLE_USAGE(.BOTH.,#227);
#158=FACE_BOUND('',#228,.T.);
#159=FACE_OUTER_BOUND('',#229,.T.);
#160=PLANE('',#230);
#161=SURFACE_STYLE_USAGE(.BOTH.,#231);
#162=CLOSED_SHELL('',(#44,#46,#48,#50,#52,#54,#56,#58,#60,#62,#64,#66,#68,#70,#72,#74,#76,#78,#80));
#163=PRODUCT_CONTEXT('',#30,'mechanical');
#164=PRODUCT_DEFINITION_FORMATION_WITH_SPECIFIED_SOURCE(' ','NONE',#83,.NOT_KNOWN.);
#165=CARTESIAN_POINT('',(0.0,0.0,0.0));
#166=DIRECTION('',(0.0,0.0,1.0));
#167=DIRECTION('',(1.0,0.0,0.0));
#168= (NAMED_UNIT(#91)LENGTH_UNIT()SI_UNIT(.MILLI.,.METRE.));
#169=SURFACE_SIDE_STYLE('',(#233));
#170=EDGE_LOOP('',(#234,#235,#236,#237));
#171=AXIS2_PLACEMENT_3D('',#238,#239,#240);
#172=SURFACE_SIDE_STYLE('',(#241));
#173=EDGE_LOOP('',(#242,#243,#244,#245));
#174=AXIS2_PLACEMENT_3D('',#246,#247,#248);
#175=SURFACE_SIDE_STYLE('',(#249));
#176=EDGE_LOOP('',(#250,#251,#252,#253));
#177=AXIS2_PLACEMENT_3D('',#254,#255,#256);
#178=SURFACE_SIDE_STYLE('',(#257));
#179=EDGE_LOOP('',(#258,#259,#260,#261));
#180=AXIS2_PLACEMENT_3D('',#262,#263,#264);
#181=SURFACE_SIDE_STYLE('',(#265));
#182=EDGE_LOOP('',(#266,#267,#268,#269));
#183=AXIS2_PLACEMENT_3D('',#270,#271,#272);
#184=SURFACE_SIDE_STYLE('',(#273));
#185=EDGE_LOOP('',(#274,#275,#276,#277));
#186=AXIS2_PLACEMENT_3D('',#278,#279,#280);
#187=SURFACE_SIDE_STYLE('',(#281));
#188=EDGE_LOOP('',(#282,#283,#284,#285));
#189=AXIS2_PLACEMENT_3D('',#286,#287,#288);
#190=SURFACE_SIDE_STYLE('',(#289));
#191=EDGE_LOOP('',(#290,#291,#292,#293));
#192=AXIS2_PLACEMENT_3D('',#294,#295,#296);
#193=SURFACE_SIDE_STYLE('',(#297));
#194=EDGE_LOOP('',(#298,#299));
#195=EDGE_LOOP('',(#300,#301));
#196=AXIS2_PLACEMENT_3D('',#302,#303,#304);
#197=SURFACE_SIDE_STYLE('',(#305));
#198=EDGE_LOOP('',(#306,#307,#308,#309));
#199=AXIS2_PLACEMENT_3D('',#310,#311,#312);
#200=SURFACE_SIDE_STYLE('',(#313));
#201=EDGE_LOOP('',(#314,#315));
#202=EDGE_LOOP('',(#316,#317));
#203=AXIS2_PLACEMENT_3D('',#318,#319,#320);
#204=SURFACE_SIDE_STYLE('',(#321));
#205=EDGE_LOOP('',(#322,#323));
#206=EDGE_LOOP('',(#324,#325));
#207=AXIS2_PLACEMENT_3D('',#326,#327,#328);
#208=SURFACE_SIDE_STYLE('',(#329));
#209=EDGE_LOOP('',(#330,#331,#332,#333));
#210=AXIS2_PLACEMENT_3D('',#334,#335,#336);
#211=SURFACE_SIDE_STYLE('',(#337));
#212=EDGE_LOOP('',(#338,#339,#340,#341));
#213=AXIS2_PLACEMENT_3D('',#342,#343,#344);
#214=SURFACE_SIDE_STYLE('',(#345));
#215=EDGE_LOOP('',(#346,#347,#348,#349));
#216=AXIS2_PLACEMENT_3D('',#350,#351,#352);
#217=SURFACE_SIDE_STYLE('',(#353));
#218=EDGE_LOOP('',(#354,#355));
#219=EDGE_LOOP('',(#356,#357));
#220=AXIS2_PLACEMENT_3D('',#358,#359,#360);
#221=SURFACE_SIDE_STYLE('',(#361));
#222=EDGE_LOOP('',(#362,#363,#364,#365));
#223=AXIS2_PLACEMENT_3D('',#366,#367,#368);
#224=SURFACE_SIDE_STYLE('',(#369));
#225=EDGE_LOOP('',(#370,#371,#372,#373));
#226=AXIS2_PLACEMENT_3D('',#374,#375,#376);
#227=SURFACE_SIDE_STYLE('',(#377));
#228=EDGE_LOOP('',(#378,#379));
#229=EDGE_LOOP('',(#380,#381));
#230=AXIS2_PLACEMENT_3D('',#382,#383,#384);
#231=SURFACE_SIDE_STYLE('',(#385));
#233=SURFACE_STYLE_FILL_AREA(#386);
#234=ORIENTED_EDGE('',*,*,#387,.F.);
#235=ORIENTED_EDGE('',*,*,#388,.F.);
#236=ORIENTED_EDGE('',*,*,#389,.F.);
#237=ORIENTED_EDGE('',*,*,#390,.F.);
#238=CARTESIAN_POINT('',(0.0,0.0,72.75));
#239=DIRECTION('',(0.0,0.0,-1.0));
#240=DIRECTION('',(1.0,0.0,0.0));
#241=SURFACE_STYLE_FILL_AREA(#391);
#242=ORIENTED_EDGE('',*,*,#392,.F.);
#243=ORIENTED_EDGE('',*,*,#390,.T.);
#244=ORIENTED_EDGE('',*,*,#393,.F.);
#245=ORIENTED_EDGE('',*,*,#394,.T.);
#246=CARTESIAN_POINT('',(0.0,0.0,31.0));
#247=DIRECTION('',(-0.0,-0.0,1.0));
#248=DIRECTION('',(1.0,0.0,0.0));
#249=SURFACE_STYLE_FILL_AREA(#395);
#250=ORIENTED_EDGE('',*,*,#396,.F.);
#251=ORIENTED_EDGE('',*,*,#394,.F.);
#252=ORIENTED_EDGE('',*,*,#397,.F.);
#253=ORIENTED_EDGE('',*,*,#398,.F.);
#254=CARTESIAN_POINT('',(0.0,0.0,24.25));
#255=DIRECTION('',(0.0,0.0,-1.0));
#256=DIRECTION('',(1.0,0.0,0.0));
#257=SURFACE_STYLE_FILL_AREA(#399);
#258=ORIENTED_EDGE('',*,*,#400,.F.);
#259=ORIENTED_EDGE('',*,*,#401,.T.);
#260=ORIENTED_EDGE('',*,*,#402,.F.);
#261=ORIENTED_EDGE('',*,*,#403,.T.);
#262=CARTESIAN_POINT('',(0.0,0.0,76.0));
#263=DIRECTION('',(0.0,0.0,-1.0));
#264=DIRECTION('',(1.0,0.0,0.0));
#265=SURFACE_STYLE_FILL_AREA(#404);
#266=ORIENTED_EDGE('',*,*,#405,.F.);
#267=ORIENTED_EDGE('',*,*,#406,.F.);
#268=ORIENTED_EDGE('',*,*,#407,.F.);
#269=ORIENTED_EDGE('',*,*,#408,.F.);
#270=CARTESIAN_POINT('',(0.0,0.0,77.0));
#271=DIRECTION('',(0.0,0.0,1.0));
#272=DIRECTION('',(1.0,0.0,0.0));
#273=SURFACE_STYLE_FILL_AREA(#409);
#274=ORIENTED_EDGE('',*,*,#410,.F.);
#275=ORIENTED_EDGE('',*,*,#411,.T.);
#276=ORIENTED_EDGE('',*,*,#412,.F.);
#277=ORIENTED_EDGE('',*,*,#413,.T.);
#278=CARTESIAN_POINT('',(0.0,0.0,40.845));
#279=DIRECTION('',(-0.0,-0.0,1.0));
#280=DIRECTION('',(1.0,0.0,0.0));
#281=SURFACE_STYLE_FILL_AREA(#414);
#282=ORIENTED_EDGE('',*,*,#415,.F.);
#283=ORIENTED_EDGE('',*,*,#416,.T.);
#284=ORIENTED_EDGE('',*,*,#417,.F.);
#285=ORIENTED_EDGE('',*,*,#418,.F.);
#286=CARTESIAN_POINT('',(0.0,0.0,25.5));
#287=DIRECTION('',(0.0,0.0,1.0));
#288=DIRECTION('',(1.0,0.0,0.0));
#289=SURFACE_STYLE_FILL_AREA(#419);
#290=ORIENTED_EDGE('',*,*,#415,.T.);
#291=ORIENTED_EDGE('',*,*,#420,.F.);
#292=ORIENTED_EDGE('',*,*,#417,.T.);
#293=ORIENTED_EDGE('',*,*,#421,.T.);
#294=CARTESIAN_POINT('',(0.0,0.0,25.5));
#295=DIRECTION('',(0.0,0.0,1.0));
#296=DIRECTION('',(1.0,0.0,0.0));
#297=SURFACE_STYLE_FILL_AREA(#422);
#298=ORIENTED_EDGE('',*,*,#423,.F.);
#299=ORIENTED_EDGE('',*,*,#411,.F.);
#300=ORIENTED_EDGE('',*,*,#416,.F.);
#301=ORIENTED_EDGE('',*,*,#421,.F.);
#302=CARTESIAN_POINT('',(0.0,0.0,51.0));
#303=DIRECTION('',(0.0,0.0,1.0));
#304=DIRECTION('',(1.0,0.0,0.0));
#305=SURFACE_STYLE_FILL_AREA(#424);
#306=ORIENTED_EDGE('',*,*,#410,.T.);
#307=ORIENTED_EDGE('',*,*,#425,.T.);
#308=ORIENTED_EDGE('',*,*,#412,.T.);
#309=ORIENTED_EDGE('',*,*,#423,.T.);
#310=CARTESIAN_POINT('',(0.0,0.0,40.845));
#311=DIRECTION('',(-0.0,-0.0,1.0));
#312=DIRECTION('',(1.0,0.0,0.0));
#313=SURFACE_STYLE_FILL_AREA(#426);
#314=ORIENTED_EDGE('',*,*,#401,.F.);
#315=ORIENTED_EDGE('',*,*,#427,.F.);
#316=ORIENTED_EDGE('',*,*,#425,.F.);
#317=ORIENTED_EDGE('',*,*,#413,.F.);
#318=CARTESIAN_POINT('',(0.0,0.0,55.0));
#319=DIRECTION('',(0.0,0.0,1.0));
#320=DIRECTION('',(-1.0,0.0,0.0));
#321=SURFACE_STYLE_FILL_AREA(#428);
#322=ORIENTED_EDGE('',*,*,#403,.F.);
#323=ORIENTED_EDGE('',*,*,#429,.F.);
#324=ORIENTED_EDGE('',*,*,#408,.T.);
#325=ORIENTED_EDGE('',*,*,#430,.T.);
#326=CARTESIAN_POINT('',(21.2325,0.0,57.0));
#327=DIRECTION('',(0.0,0.0,-1.0));
#328=DIRECTION('',(-1.0,0.0,0.0));
#329=SURFACE_STYLE_FILL_AREA(#431);
#330=ORIENTED_EDGE('',*,*,#405,.T.);
#331=ORIENTED_EDGE('',*,*,#430,.F.);
#332=ORIENTED_EDGE('',*,*,#407,.T.);
#333=ORIENTED_EDGE('',*,*,#432,.F.);
#334=CARTESIAN_POINT('',(0.0,0.0,77.0));
#335=DIRECTION('',(0.0,0.0,1.0));
#336=DIRECTION('',(1.0,0.0,0.0));
#337=SURFACE_STYLE_FILL_AREA(#433);
#338=ORIENTED_EDGE('',*,*,#400,.T.);
#339=ORIENTED_EDGE('',*,*,#429,.T.);
#340=ORIENTED_EDGE('',*,*,#402,.T.);
#341=ORIENTED_EDGE('',*,*,#427,.T.);
#342=CARTESIAN_POINT('',(0.0,0.0,76.0));
#343=DIRECTION('',(0.0,0.0,-1.0));
#344=DIRECTION('',(1.0,0.0,0.0));
#345=SURFACE_STYLE_FILL_AREA(#434);
#346=ORIENTED_EDGE('',*,*,#396,.T.);
#347=ORIENTED_EDGE('',*,*,#435,.F.);
#348=ORIENTED_EDGE('',*,*,#397,.T.);
#349=ORIENTED_EDGE('',*,*,#436,.F.);
#350=CARTESIAN_POINT('',(0.0,0.0,24.25));
#351=DIRECTION('',(0.0,0.0,-1.0));
#352=DIRECTION('',(1.0,0.0,0.0));
#353=SURFACE_STYLE_FILL_AREA(#437);
#354=ORIENTED_EDGE('',*,*,#418,.T.);
#355=ORIENTED_EDGE('',*,*,#420,.T.);
#356=ORIENTED_EDGE('',*,*,#398,.T.);
#357=ORIENTED_EDGE('',*,*,#435,.T.);
#358=CARTESIAN_POINT('',(0.0,0.0,0.0));
#359=DIRECTION('',(0.0,0.0,-1.0));
#360=DIRECTION('',(1.0,0.0,0.0));
#361=SURFACE_STYLE_FILL_AREA(#438);
#362=ORIENTED_EDGE('',*,*,#392,.T.);
#363=ORIENTED_EDGE('',*,*,#436,.T.);
#364=ORIENTED_EDGE('',*,*,#393,.T.);
#365=ORIENTED_EDGE('',*,*,#439,.T.);
#366=CARTESIAN_POINT('',(0.0,0.0,31.0));
#367=DIRECTION('',(-0.0,-0.0,1.0));
#368=DIRECTION('',(1.0,0.0,0.0));
#369=SURFACE_STYLE_FILL_AREA(#440);
#370=ORIENTED_EDGE('',*,*,#387,.T.);
#371=ORIENTED_EDGE('',*,*,#439,.F.);
#372=ORIENTED_EDGE('',*,*,#389,.T.);
#373=ORIENTED_EDGE('',*,*,#441,.F.);
#374=CARTESIAN_POINT('',(0.0,0.0,72.75));
#375=DIRECTION('',(0.0,0.0,-1.0));
#376=DIRECTION('',(1.0,0.0,0.0));
#377=SURFACE_STYLE_FILL_AREA(#442);
#378=ORIENTED_EDGE('',*,*,#432,.T.);
#379=ORIENTED_EDGE('',*,*,#406,.T.);
#380=ORIENTED_EDGE('',*,*,#441,.T.);
#381=ORIENTED_EDGE('',*,*,#388,.T.);
#382=CARTESIAN_POINT('',(0.0,0.0,97.0));
#383=DIRECTION('',(0.0,0.0,1.0));
#384=DIRECTION('',(-1.0,0.0,0.0));
#385=SURFACE_STYLE_FILL_AREA(#443);
#386=FILL_AREA_STYLE('',(#444));
#387=EDGE_CURVE('',#445,#446,#447,.T.);
#388=EDGE_CURVE('',#448,#445,#449,.T.);
#389=EDGE_CURVE('',#450,#448,#451,.T.);
#390=EDGE_CURVE('',#446,#450,#452,.T.);
#391=FILL_AREA_STYLE('',(#453));
#392=EDGE_CURVE('',#446,#454,#455,.T.);
#393=EDGE_CURVE('',#456,#450,#457,.T.);
#394=EDGE_CURVE('',#456,#454,#458,.T.);
#395=FILL_AREA_STYLE('',(#459));
#396=EDGE_CURVE('',#454,#460,#461,.T.);
#397=EDGE_CURVE('',#462,#456,#463,.T.);
#398=EDGE_CURVE('',#460,#462,#464,.T.);
#399=FILL_AREA_STYLE('',(#465));
#400=EDGE_CURVE('',#466,#467,#468,.T.);
#401=EDGE_CURVE('',#466,#469,#470,.T.);
#402=EDGE_CURVE('',#471,#469,#472,.T.);
#403=EDGE_CURVE('',#471,#467,#473,.T.);
#404=FILL_AREA_STYLE('',(#474));
#405=EDGE_CURVE('',#475,#476,#477,.T.);
#406=EDGE_CURVE('',#478,#475,#479,.T.);
#407=EDGE_CURVE('',#480,#478,#481,.T.);
#408=EDGE_CURVE('',#476,#480,#482,.T.);
#409=FILL_AREA_STYLE('',(#483));
#410=EDGE_CURVE('',#484,#485,#486,.T.);
#411=EDGE_CURVE('',#484,#487,#488,.T.);
#412=EDGE_CURVE('',#489,#487,#490,.T.);
#413=EDGE_CURVE('',#489,#485,#491,.T.);
#414=FILL_AREA_STYLE('',(#492));
#415=EDGE_CURVE('',#493,#494,#495,.T.);
#416=EDGE_CURVE('',#493,#496,#497,.T.);
#417=EDGE_CURVE('',#498,#496,#499,.T.);
#418=EDGE_CURVE('',#494,#498,#500,.T.);
#419=FILL_AREA_STYLE('',(#501));
#420=EDGE_CURVE('',#498,#494,#502,.T.);
#421=EDGE_CURVE('',#496,#493,#503,.T.);
#422=FILL_AREA_STYLE('',(#504));
#423=EDGE_CURVE('',#487,#484,#505,.T.);
#424=FILL_AREA_STYLE('',(#506));
#425=EDGE_CURVE('',#485,#489,#507,.T.);
#426=FILL_AREA_STYLE('',(#508));
#427=EDGE_CURVE('',#469,#466,#509,.T.);
#428=FILL_AREA_STYLE('',(#510));
#429=EDGE_CURVE('',#467,#471,#511,.T.);
#430=EDGE_CURVE('',#480,#476,#512,.T.);
#431=FILL_AREA_STYLE('',(#513));
#432=EDGE_CURVE('',#475,#478,#514,.T.);
#433=FILL_AREA_STYLE('',(#515));
#434=FILL_AREA_STYLE('',(#516));
#435=EDGE_CURVE('',#462,#460,#517,.T.);
#436=EDGE_CURVE('',#454,#456,#518,.T.);
#437=FILL_AREA_STYLE('',(#519));
#438=FILL_AREA_STYLE('',(#520));
#439=EDGE_CURVE('',#450,#446,#521,.T.);
#440=FILL_AREA_STYLE('',(#522));
#441=EDGE_CURVE('',#445,#448,#523,.T.);
#442=FILL_AREA_STYLE('',(#524));
#443=FILL_AREA_STYLE('',(#525));
#444=FILL_AREA_STYLE_COLOUR('',#526);
#445=VERTEX_POINT('',#527);
#446=VERTEX_POINT('',#528);
#447=LINE('',#529,#530);
#448=VERTEX_POINT('',#531);
#449=CIRCLE('',#532,52.5);
#450=VERTEX_POINT('',#533);
#451=LINE('',#534,#535);
#452=CIRCLE('',#536,52.5);
#453=FILL_AREA_STYLE_COLOUR('',#537);
#454=VERTEX_POINT('',#538);
#455=LINE('',#539,#540);
#456=VERTEX_POINT('',#541);
#457=LINE('',#542,#543);
#458=CIRCLE('',#544,45.0);
#459=FILL_AREA_STYLE_COLOUR('',#545);
#460=VERTEX_POINT('',#546);
#461=LINE('',#547,#548);
#462=VERTEX_POINT('',#549);
#463=LINE('',#550,#551);
#464=CIRCLE('',#552,45.0);
#465=FILL_AREA_STYLE_COLOUR('',#553);
#466=VERTEX_POINT('',#554);
#467=VERTEX_POINT('',#555);
#468=LINE('',#556,#557);
#469=VERTEX_POINT('',#558);
#470=CIRCLE('',#559,42.455);
#471=VERTEX_POINT('',#560);
#472=LINE('',#561,#562);
#473=CIRCLE('',#563,42.455);
#474=FILL_AREA_STYLE_COLOUR('',#564);
#475=VERTEX_POINT('',#565);
#476=VERTEX_POINT('',#566);
#477=LINE('',#567,#568);
#478=VERTEX_POINT('',#569);
#479=CIRCLE('',#570,42.465);
#480=VERTEX_POINT('',#571);
#481=LINE('',#572,#573);
#482=CIRCLE('',#574,42.465);
#483=FILL_AREA_STYLE_COLOUR('',#575);
#484=VERTEX_POINT('',#576);
#485=VERTEX_POINT('',#577);
#486=LINE('',#578,#579);
#487=VERTEX_POINT('',#580);
#488=CIRCLE('',#581,36.465);
#489=VERTEX_POINT('',#582);
#490=LINE('',#583,#584);
#491=CIRCLE('',#585,42.465);
#492=FILL_AREA_STYLE_COLOUR('',#586);
#493=VERTEX_POINT('',#587);
#494=VERTEX_POINT('',#588);
#495=LINE('',#589,#590);
#496=VERTEX_POINT('',#591);
#497=CIRCLE('',#592,37.5);
#498=VERTEX_POINT('',#593);
#499=LINE('',#594,#595);
#500=CIRCLE('',#596,37.5);
#501=FILL_AREA_STYLE_COLOUR('',#597);
#502=CIRCLE('',#598,37.5);
#503=CIRCLE('',#599,37.5);
#504=FILL_AREA_STYLE_COLOUR('',#600);
#505=CIRCLE('',#601,36.465);
#506=FILL_AREA_STYLE_COLOUR('',#602);
#507=CIRCLE('',#603,42.465);
#508=FILL_AREA_STYLE_COLOUR('',#604);
#509=CIRCLE('',#605,42.455);
#510=FILL_AREA_STYLE_COLOUR('',#606);
#511=CIRCLE('',#607,42.455);
#512=CIRCLE('',#608,42.465);
#513=FILL_AREA_STYLE_COLOUR('',#609);
#514=CIRCLE('',#610,42.465);
#515=FILL_AREA_STYLE_COLOUR('',#611);
#516=FILL_AREA_STYLE_COLOUR('',#612);
#517=CIRCLE('',#613,45.0);
#518=CIRCLE('',#614,45.0);
#519=FILL_AREA_STYLE_COLOUR('',#615);
#520=FILL_AREA_STYLE_COLOUR('',#616);
#521=CIRCLE('',#617,52.5);
#522=FILL_AREA_STYLE_COLOUR('',#618);
#523=CIRCLE('',#619,52.5);
#524=FILL_AREA_STYLE_COLOUR('',#620);
#525=FILL_AREA_STYLE_COLOUR('',#621);
#526=COLOUR_RGB('',0.250980406999588,0.290196090936661,0.329411774873734);
#527=CARTESIAN_POINT('',(52.5,0.0,97.0));
#528=CARTESIAN_POINT('',(52.5,0.0,48.5));
#529=CARTESIAN_POINT('',(52.5,6.4293956955236E-015,72.75));
#530=VECTOR('',#622,1.0);
#531=CARTESIAN_POINT('',(-52.5,-6.4293956955236E-015,97.0));
#532=AXIS2_PLACEMENT_3D('',#623,#624,#625);
#533=CARTESIAN_POINT('',(-52.5,-6.4293956955236E-015,48.5));
#534=CARTESIAN_POINT('',(-52.5,-6.4293956955236E-015,72.75));
#535=VECTOR('',#626,1.0);
#536=AXIS2_PLACEMENT_3D('',#627,#628,#629);
#537=COLOUR_RGB('',0.250980406999588,0.290196090936661,0.329411774873734);
#538=CARTESIAN_POINT('',(45.0,5.51091059616309E-015,43.5));
#539=CARTESIAN_POINT('',(26.25,3.2146978477618E-015,31.0));
#540=VECTOR('',#630,1.0);
#541=CARTESIAN_POINT('',(-45.0,-5.51091059616309E-015,43.5));
#542=CARTESIAN_POINT('',(-26.25,-3.2146978477618E-015,31.0));
#543=VECTOR('',#631,1.0);
#544=AXIS2_PLACEMENT_3D('',#632,#633,#634);
#545=COLOUR_RGB('',0.250980406999588,0.290196090936661,0.329411774873734);
#546=CARTESIAN_POINT('',(45.0,0.0,0.0));
#547=CARTESIAN_POINT('',(45.0,5.51091059616309E-015,24.25));
#548=VECTOR('',#635,1.0);
#549=CARTESIAN_POINT('',(-45.0,-5.51091059616309E-015,0.0));
#550=CARTESIAN_POINT('',(-45.0,-5.51091059616309E-015,24.25));
#551=VECTOR('',#636,1.0);
#552=AXIS2_PLACEMENT_3D('',#637,#638,#639);
#553=COLOUR_RGB('',0.250980406999588,0.290196090936661,0.329411774873734);
#554=CARTESIAN_POINT('',(42.455,0.0,55.0));
#555=CARTESIAN_POINT('',(42.455,5.19923798578009E-015,57.0));
#556=CARTESIAN_POINT('',(42.455,5.19923798578009E-015,56.0));
#557=VECTOR('',#640,1.0);
#558=CARTESIAN_POINT('',(-42.455,-5.19923798578009E-015,55.0));
#559=AXIS2_PLACEMENT_3D('',#641,#642,#643);
#560=CARTESIAN_POINT('',(-42.455,-5.19923798578009E-015,57.0));
#561=CARTESIAN_POINT('',(-42.455,-5.19923798578009E-015,56.0));
#562=VECTOR('',#644,1.0);
#563=AXIS2_PLACEMENT_3D('',#645,#646,#647);
#564=COLOUR_RGB('',1.0,1.0,0.501960813999176);
#565=CARTESIAN_POINT('',(42.465,0.0,97.0));
#566=CARTESIAN_POINT('',(42.465,0.0,57.0));
#567=CARTESIAN_POINT('',(42.465,-5.20046263257923E-015,77.0));
#568=VECTOR('',#648,1.0);
#569=CARTESIAN_POINT('',(-42.465,5.20046263257923E-015,97.0));
#570=AXIS2_PLACEMENT_3D('',#649,#650,#651);
#571=CARTESIAN_POINT('',(-42.465,5.20046263257923E-015,57.0));
#572=CARTESIAN_POINT('',(-42.465,5.20046263257923E-015,77.0));
#573=VECTOR('',#652,1.0);
#574=AXIS2_PLACEMENT_3D('',#653,#654,#655);
#575=COLOUR_RGB('',0.250980406999588,0.290196090936661,0.329411774873734);
#576=CARTESIAN_POINT('',(36.465,4.46567455309082E-015,51.0));
#577=CARTESIAN_POINT('',(42.465,0.0,55.0));
#578=CARTESIAN_POINT('',(21.2325,2.60023131628962E-015,40.845));
#579=VECTOR('',#656,1.0);
#580=CARTESIAN_POINT('',(-36.465,4.46567455309082E-015,51.0));
#581=AXIS2_PLACEMENT_3D('',#657,#658,#659);
#582=CARTESIAN_POINT('',(-42.465,-5.20046263257924E-015,55.0));
#583=CARTESIAN_POINT('',(-21.2325,-2.60023131628962E-015,40.845));
#584=VECTOR('',#660,1.0);
#585=AXIS2_PLACEMENT_3D('',#661,#662,#663);
#586=COLOUR_RGB('',0.250980406999588,0.290196090936661,0.329411774873734);
#587=CARTESIAN_POINT('',(37.5,0.0,51.0));
#588=CARTESIAN_POINT('',(37.5,0.0,0.0));
#589=CARTESIAN_POINT('',(37.5,-4.59242549680257E-015,25.5));
#590=VECTOR('',#664,1.0);
#591=CARTESIAN_POINT('',(-37.5,4.59242549680257E-015,51.0));
#592=AXIS2_PLACEMENT_3D('',#665,#666,#667);
#593=CARTESIAN_POINT('',(-37.5,4.59242549680257E-015,0.0));
#594=CARTESIAN_POINT('',(-37.5,4.59242549680257E-015,25.5));
#595=VECTOR('',#668,1.0);
#596=AXIS2_PLACEMENT_3D('',#669,#670,#671);
#597=COLOUR_RGB('',0.250980406999588,0.290196090936661,0.329411774873734);
#598=AXIS2_PLACEMENT_3D('',#672,#673,#674);
#599=AXIS2_PLACEMENT_3D('',#675,#676,#677);
#600=COLOUR_RGB('',0.250980406999588,0.290196090936661,0.329411774873734);
#601=AXIS2_PLACEMENT_3D('',#678,#679,#680);
#602=COLOUR_RGB('',0.250980406999588,0.290196090936661,0.329411774873734);
#603=AXIS2_PLACEMENT_3D('',#681,#682,#683);
#604=COLOUR_RGB('',0.250980406999588,0.290196090936661,0.329411774873734);
#605=AXIS2_PLACEMENT_3D('',#684,#685,#686);
#606=COLOUR_RGB('',1.0,1.0,0.501960813999176);
#607=AXIS2_PLACEMENT_3D('',#687,#688,#689);
#608=AXIS2_PLACEMENT_3D('',#690,#691,#692);
#609=COLOUR_RGB('',1.0,1.0,0.501960813999176);
#610=AXIS2_PLACEMENT_3D('',#693,#694,#695);
#611=COLOUR_RGB('',0.250980406999588,0.290196090936661,0.329411774873734);
#612=COLOUR_RGB('',0.250980406999588,0.290196090936661,0.329411774873734);
#613=AXIS2_PLACEMENT_3D('',#696,#697,#698);
#614=AXIS2_PLACEMENT_3D('',#699,#700,#701);
#615=COLOUR_RGB('',0.250980406999588,0.290196090936661,0.329411774873734);
#616=COLOUR_RGB('',0.250980406999588,0.290196090936661,0.329411774873734);
#617=AXIS2_PLACEMENT_3D('',#702,#703,#704);
#618=COLOUR_RGB('',0.250980406999588,0.290196090936661,0.329411774873734);
#619=AXIS2_PLACEMENT_3D('',#705,#706,#707);
#620=COLOUR_RGB('',0.250980406999588,0.290196090936661,0.329411774873734);
#621=COLOUR_RGB('',0.250980406999588,0.290196090936661,0.329411774873734);
#622=DIRECTION('',(0.0,0.0,-1.0));
#623=CARTESIAN_POINT('',(0.0,0.0,97.0));
#624=DIRECTION('',(0.0,0.0,1.0));
#625=DIRECTION('',(1.0,0.0,0.0));
#626=DIRECTION('',(-0.0,-0.0,1.0));
#627=CARTESIAN_POINT('',(0.0,0.0,48.5));
#628=DIRECTION('',(0.0,0.0,-1.0));
#629=DIRECTION('',(1.0,0.0,0.0));
#630=DIRECTION('',(-0.832050294337844,-1.01896772969045E-016,-0.554700196225229));
#631=DIRECTION('',(-0.832050294337844,-1.01896772969045E-016,0.554700196225229));
#632=CARTESIAN_POINT('',(0.0,0.0,43.5));
#633=DIRECTION('',(0.0,-0.0,1.0));
#634=DIRECTION('',(1.0,0.0,0.0));
#635=DIRECTION('',(0.0,0.0,-1.0));
#636=DIRECTION('',(-0.0,-0.0,1.0));
#637=CARTESIAN_POINT('',(0.0,0.0,0.0));
#638=DIRECTION('',(0.0,0.0,-1.0));
#639=DIRECTION('',(1.0,0.0,0.0));
#640=DIRECTION('',(-0.0,-0.0,1.0));
#641=CARTESIAN_POINT('',(0.0,0.0,55.0));
#642=DIRECTION('',(0.0,0.0,-1.0));
#643=DIRECTION('',(1.0,0.0,0.0));
#644=DIRECTION('',(-0.0,-0.0,-1.0));
#645=CARTESIAN_POINT('',(0.0,0.0,57.0));
#646=DIRECTION('',(0.0,-0.0,1.0));
#647=DIRECTION('',(1.0,0.0,0.0));
#648=DIRECTION('',(-0.0,0.0,-1.0));
#649=CARTESIAN_POINT('',(0.0,0.0,97.0));
#650=DIRECTION('',(0.0,0.0,-1.0));
#651=DIRECTION('',(1.0,0.0,0.0));
#652=DIRECTION('',(-0.0,0.0,1.0));
#653=CARTESIAN_POINT('',(0.0,0.0,57.0));
#654=DIRECTION('',(0.0,0.0,1.0));
#655=DIRECTION('',(1.0,0.0,0.0));
#656=DIRECTION('',(0.832050294337844,1.01896772969045E-016,0.554700196225229));
#657=CARTESIAN_POINT('',(0.0,0.0,51.0));
#658=DIRECTION('',(0.0,0.0,-1.0));
#659=DIRECTION('',(1.0,0.0,0.0));
#660=DIRECTION('',(0.832050294337844,1.01896772969045E-016,-0.554700196225229));
#661=CARTESIAN_POINT('',(0.0,0.0,55.0));
#662=DIRECTION('',(0.0,0.0,1.0));
#663=DIRECTION('',(1.0,0.0,0.0));
#664=DIRECTION('',(-0.0,0.0,-1.0));
#665=CARTESIAN_POINT('',(0.0,0.0,51.0));
#666=DIRECTION('',(0.0,0.0,1.0));
#667=DIRECTION('',(1.0,0.0,0.0));
#668=DIRECTION('',(-0.0,0.0,1.0));
#669=CARTESIAN_POINT('',(0.0,0.0,0.0));
#670=DIRECTION('',(0.0,-0.0,1.0));
#671=DIRECTION('',(1.0,0.0,0.0));
#672=CARTESIAN_POINT('',(0.0,0.0,0.0));
#673=DIRECTION('',(0.0,-0.0,1.0));
#674=DIRECTION('',(1.0,0.0,0.0));
#675=CARTESIAN_POINT('',(0.0,0.0,51.0));
#676=DIRECTION('',(0.0,0.0,1.0));
#677=DIRECTION('',(1.0,0.0,0.0));
#678=CARTESIAN_POINT('',(0.0,0.0,51.0));
#679=DIRECTION('',(0.0,0.0,-1.0));
#680=DIRECTION('',(1.0,0.0,0.0));
#681=CARTESIAN_POINT('',(0.0,0.0,55.0));
#682=DIRECTION('',(0.0,0.0,1.0));
#683=DIRECTION('',(1.0,0.0,0.0));
#684=CARTESIAN_POINT('',(0.0,0.0,55.0));
#685=DIRECTION('',(0.0,0.0,-1.0));
#686=DIRECTION('',(1.0,0.0,0.0));
#687=CARTESIAN_POINT('',(0.0,0.0,57.0));
#688=DIRECTION('',(0.0,-0.0,1.0));
#689=DIRECTION('',(1.0,0.0,0.0));
#690=CARTESIAN_POINT('',(0.0,0.0,57.0));
#691=DIRECTION('',(0.0,0.0,1.0));
#692=DIRECTION('',(1.0,0.0,0.0));
#693=CARTESIAN_POINT('',(0.0,0.0,97.0));
#694=DIRECTION('',(0.0,0.0,-1.0));
#695=DIRECTION('',(1.0,0.0,0.0));
#696=CARTESIAN_POINT('',(0.0,0.0,0.0));
#697=DIRECTION('',(0.0,0.0,-1.0));
#698=DIRECTION('',(1.0,0.0,0.0));
#699=CARTESIAN_POINT('',(0.0,0.0,43.5));
#700=DIRECTION('',(0.0,-0.0,1.0));
#701=DIRECTION('',(1.0,0.0,0.0));
#702=CARTESIAN_POINT('',(0.0,0.0,48.5));
#703=DIRECTION('',(0.0,0.0,-1.0));
#704=DIRECTION('',(1.0,0.0,0.0));
#705=CARTESIAN_POINT('',(0.0,0.0,97.0));
#706=DIRECTION('',(0.0,0.0,1.0));
#707=DIRECTION('',(1.0,0.0,0.0));
ENDSEC;
END-ISO-10303-21;
