ISO-10303-21;
HEADER;
FILE_DESCRIPTION( ( 'STEP AP214' ), '1' );
FILE_NAME( 'C:/Users/azilaghe/AppData/Local/Temp/psolqas_1104_12.stp', '2021-03-04T17:30:56', ( 'License CC BY-ND 4.0' ), ( 'CADENAS' ), ' ', 'PARTsolutions', ' ' );
FILE_SCHEMA( ( 'AUTOMOTIVE_DESIGN { 1 0 10303 214 1 1 1 1 }' ) );
ENDSEC;
DATA;
#1 = MECHANICAL_DESIGN_GEOMETRIC_PRESENTATION_REPRESENTATION( ' ', ( #10, #11, #12, #13, #14, #15, #16, #17, #18, #19 ), #6 );
#2 = PRODUCT_DEFINITION_CONTEXT( '', #20, 'design' );
#3 = APPLICATION_PROTOCOL_DEFINITION( 'international standard', 'automotive_design', 2001, #20 );
#4 = PRODUCT_CATEGORY_RELATIONSHIP( 'NONE', 'NONE', #21, #22 );
#5 = SHAPE_DEFINITION_REPRESENTATION( #23, #24 );
#6 =  ( GEOMETRIC_REPRESENTATION_CONTEXT( 3 )GLOBAL_UNCERTAINTY_ASSIGNED_CONTEXT( ( #27 ) )GLOBAL_UNIT_ASSIGNED_CONTEXT( ( #29, #30, #31 ) )REPRESENTATION_CONTEXT( 'NONE', 'WORKSPACE' ) );
#10 = STYLED_ITEM( '', ( #33 ), #34 );
#11 = STYLED_ITEM( '', ( #35 ), #36 );
#12 = STYLED_ITEM( '', ( #37 ), #38 );
#13 = STYLED_ITEM( '', ( #39 ), #40 );
#14 = STYLED_ITEM( '', ( #41 ), #42 );
#15 = STYLED_ITEM( '', ( #43 ), #44 );
#16 = STYLED_ITEM( '', ( #45 ), #46 );
#17 = STYLED_ITEM( '', ( #47 ), #48 );
#18 = STYLED_ITEM( '', ( #49 ), #50 );
#19 = STYLED_ITEM( '', ( #51 ), #52 );
#20 = APPLICATION_CONTEXT( 'core data for automotive mechanical design processes' );
#21 = PRODUCT_CATEGORY( 'part', 'NONE' );
#22 = PRODUCT_RELATED_PRODUCT_CATEGORY( 'detail', ' ', ( #53 ) );
#23 = PRODUCT_DEFINITION_SHAPE( 'NONE', 'NONE', #54 );
#24 = ADVANCED_BREP_SHAPE_REPRESENTATION( 'Dentino x3', ( #55, #56 ), #6 );
#27 = UNCERTAINTY_MEASURE_WITH_UNIT( LENGTH_MEASURE( 1.00000000000000E-06 ), #29, '', '' );
#29 =  ( CONVERSION_BASED_UNIT( 'METRE', #59 )LENGTH_UNIT(  )NAMED_UNIT( #62 ) );
#30 =  ( NAMED_UNIT( #64 )PLANE_ANGLE_UNIT(  )SI_UNIT( $, .RADIAN. ) );
#31 =  ( NAMED_UNIT( #64 )SI_UNIT( $, .STERADIAN. )SOLID_ANGLE_UNIT(  ) );
#33 = PRESENTATION_STYLE_ASSIGNMENT( ( #70 ) );
#34 = ADVANCED_FACE( 'NONE', ( #71, #72 ), #73, .F. );
#35 = PRESENTATION_STYLE_ASSIGNMENT( ( #74 ) );
#36 = ADVANCED_FACE( 'NONE', ( #75, #76 ), #77, .T. );
#37 = PRESENTATION_STYLE_ASSIGNMENT( ( #78 ) );
#38 = ADVANCED_FACE( 'NONE', ( #79, #80 ), #81, .T. );
#39 = PRESENTATION_STYLE_ASSIGNMENT( ( #82 ) );
#40 = ADVANCED_FACE( 'NONE', ( #83, #84 ), #85, .T. );
#41 = PRESENTATION_STYLE_ASSIGNMENT( ( #86 ) );
#42 = ADVANCED_FACE( 'NONE', ( #87 ), #88, .F. );
#43 = PRESENTATION_STYLE_ASSIGNMENT( ( #89 ) );
#44 = ADVANCED_FACE( 'NONE', ( #90 ), #91, .F. );
#45 = PRESENTATION_STYLE_ASSIGNMENT( ( #92 ) );
#46 = ADVANCED_FACE( 'NONE', ( #93 ), #94, .F. );
#47 = PRESENTATION_STYLE_ASSIGNMENT( ( #95 ) );
#48 = ADVANCED_FACE( 'NONE', ( #96 ), #97, .F. );
#49 = PRESENTATION_STYLE_ASSIGNMENT( ( #98 ) );
#50 = ADVANCED_FACE( 'NONE', ( #99 ), #100, .F. );
#51 = PRESENTATION_STYLE_ASSIGNMENT( ( #101 ) );
#52 = ADVANCED_FACE( 'NONE', ( #102 ), #103, .F. );
#53 = PRODUCT( 'Dentino x3', 'Dentino x3', 'PART-Dentino x3-DESC', ( #104 ) );
#54 = PRODUCT_DEFINITION( 'NONE', 'NONE', #105, #2 );
#55 = MANIFOLD_SOLID_BREP( 'Dentino x3', #106 );
#56 = AXIS2_PLACEMENT_3D( '', #107, #108, #109 );
#59 = LENGTH_MEASURE_WITH_UNIT( LENGTH_MEASURE( 1.00000000000000 ), #110 );
#62 = DIMENSIONAL_EXPONENTS( 1.00000000000000, 0.000000000000000, 0.000000000000000, 0.000000000000000, 0.000000000000000, 0.000000000000000, 0.000000000000000 );
#64 = DIMENSIONAL_EXPONENTS( 0.000000000000000, 0.000000000000000, 0.000000000000000, 0.000000000000000, 0.000000000000000, 0.000000000000000, 0.000000000000000 );
#70 = SURFACE_STYLE_USAGE( .BOTH., #111 );
#71 = FACE_OUTER_BOUND( '', #112, .T. );
#72 = FACE_OUTER_BOUND( '', #113, .T. );
#73 = CYLINDRICAL_SURFACE( '', #114, 0.00655000000000000 );
#74 = SURFACE_STYLE_USAGE( .BOTH., #115 );
#75 = FACE_OUTER_BOUND( '', #116, .T. );
#76 = FACE_BOUND( '', #117, .T. );
#77 = PLANE( '', #118 );
#78 = SURFACE_STYLE_USAGE( .BOTH., #119 );
#79 = FACE_OUTER_BOUND( '', #120, .T. );
#80 = FACE_BOUND( '', #121, .T. );
#81 = PLANE( '', #122 );
#82 = SURFACE_STYLE_USAGE( .BOTH., #123 );
#83 = FACE_OUTER_BOUND( '', #124, .T. );
#84 = FACE_OUTER_BOUND( '', #125, .T. );
#85 = CYLINDRICAL_SURFACE( '', #126, 0.00895000000000000 );
#86 = SURFACE_STYLE_USAGE( .BOTH., #127 );
#87 = FACE_OUTER_BOUND( '', #128, .T. );
#88 = PLANE( '', #129 );
#89 = SURFACE_STYLE_USAGE( .BOTH., #130 );
#90 = FACE_OUTER_BOUND( '', #131, .T. );
#91 = PLANE( '', #132 );
#92 = SURFACE_STYLE_USAGE( .BOTH., #133 );
#93 = FACE_OUTER_BOUND( '', #134, .T. );
#94 = PLANE( '', #135 );
#95 = SURFACE_STYLE_USAGE( .BOTH., #136 );
#96 = FACE_OUTER_BOUND( '', #137, .T. );
#97 = PLANE( '', #138 );
#98 = SURFACE_STYLE_USAGE( .BOTH., #139 );
#99 = FACE_OUTER_BOUND( '', #140, .T. );
#100 = PLANE( '', #141 );
#101 = SURFACE_STYLE_USAGE( .BOTH., #142 );
#102 = FACE_OUTER_BOUND( '', #143, .T. );
#103 = PLANE( '', #144 );
#104 = PRODUCT_CONTEXT( '', #20, 'mechanical' );
#105 = PRODUCT_DEFINITION_FORMATION_WITH_SPECIFIED_SOURCE( ' ', 'NONE', #53, .NOT_KNOWN. );
#106 = CLOSED_SHELL( '', ( #42, #50, #44, #40, #34, #46, #48, #52, #36, #38 ) );
#107 = CARTESIAN_POINT( '', ( 0.000000000000000, 0.000000000000000, 0.000000000000000 ) );
#108 = DIRECTION( '', ( 0.000000000000000, 0.000000000000000, 1.00000000000000 ) );
#109 = DIRECTION( '', ( 1.00000000000000, 0.000000000000000, 0.000000000000000 ) );
#110 =  ( LENGTH_UNIT(  )NAMED_UNIT( #62 )SI_UNIT( $, .METRE. ) );
#111 = SURFACE_SIDE_STYLE( '', ( #146 ) );
#112 = EDGE_LOOP( '', ( #147, #148, #149, #150, #151, #152, #153, #154, #155, #156, #157, #158 ) );
#113 = EDGE_LOOP( '', ( #159 ) );
#114 = AXIS2_PLACEMENT_3D( '', #160, #161, #162 );
#115 = SURFACE_SIDE_STYLE( '', ( #163 ) );
#116 = EDGE_LOOP( '', ( #164 ) );
#117 = EDGE_LOOP( '', ( #165, #166, #167, #168, #169, #170 ) );
#118 = AXIS2_PLACEMENT_3D( '', #171, #172, #173 );
#119 = SURFACE_SIDE_STYLE( '', ( #174 ) );
#120 = EDGE_LOOP( '', ( #175 ) );
#121 = EDGE_LOOP( '', ( #176 ) );
#122 = AXIS2_PLACEMENT_3D( '', #177, #178, #179 );
#123 = SURFACE_SIDE_STYLE( '', ( #180 ) );
#124 = EDGE_LOOP( '', ( #181 ) );
#125 = EDGE_LOOP( '', ( #182 ) );
#126 = AXIS2_PLACEMENT_3D( '', #183, #184, #185 );
#127 = SURFACE_SIDE_STYLE( '', ( #186 ) );
#128 = EDGE_LOOP( '', ( #187, #188, #189, #190 ) );
#129 = AXIS2_PLACEMENT_3D( '', #191, #192, #193 );
#130 = SURFACE_SIDE_STYLE( '', ( #194 ) );
#131 = EDGE_LOOP( '', ( #195, #196 ) );
#132 = AXIS2_PLACEMENT_3D( '', #197, #198, #199 );
#133 = SURFACE_SIDE_STYLE( '', ( #200 ) );
#134 = EDGE_LOOP( '', ( #201, #202 ) );
#135 = AXIS2_PLACEMENT_3D( '', #203, #204, #205 );
#136 = SURFACE_SIDE_STYLE( '', ( #206 ) );
#137 = EDGE_LOOP( '', ( #207, #208 ) );
#138 = AXIS2_PLACEMENT_3D( '', #209, #210, #211 );
#139 = SURFACE_SIDE_STYLE( '', ( #212 ) );
#140 = EDGE_LOOP( '', ( #213, #214, #215, #216 ) );
#141 = AXIS2_PLACEMENT_3D( '', #217, #218, #219 );
#142 = SURFACE_SIDE_STYLE( '', ( #220 ) );
#143 = EDGE_LOOP( '', ( #221, #222, #223, #224 ) );
#144 = AXIS2_PLACEMENT_3D( '', #225, #226, #227 );
#146 = SURFACE_STYLE_FILL_AREA( #228 );
#147 = ORIENTED_EDGE( '', *, *, #229, .T. );
#148 = ORIENTED_EDGE( '', *, *, #230, .F. );
#149 = ORIENTED_EDGE( '', *, *, #231, .T. );
#150 = ORIENTED_EDGE( '', *, *, #232, .T. );
#151 = ORIENTED_EDGE( '', *, *, #233, .T. );
#152 = ORIENTED_EDGE( '', *, *, #234, .F. );
#153 = ORIENTED_EDGE( '', *, *, #235, .T. );
#154 = ORIENTED_EDGE( '', *, *, #236, .T. );
#155 = ORIENTED_EDGE( '', *, *, #237, .T. );
#156 = ORIENTED_EDGE( '', *, *, #238, .F. );
#157 = ORIENTED_EDGE( '', *, *, #239, .T. );
#158 = ORIENTED_EDGE( '', *, *, #240, .T. );
#159 = ORIENTED_EDGE( '', *, *, #241, .F. );
#160 = CARTESIAN_POINT( '', ( 0.000000000000000, -0.00241515310536392, 0.000000000000000 ) );
#161 = DIRECTION( '', ( -0.000000000000000, 1.00000000000000, 0.000000000000000 ) );
#162 = DIRECTION( '', ( 0.000000000000000, 0.000000000000000, -1.00000000000000 ) );
#163 = SURFACE_STYLE_FILL_AREA( #242 );
#164 = ORIENTED_EDGE( '', *, *, #243, .T. );
#165 = ORIENTED_EDGE( '', *, *, #229, .F. );
#166 = ORIENTED_EDGE( '', *, *, #244, .F. );
#167 = ORIENTED_EDGE( '', *, *, #237, .F. );
#168 = ORIENTED_EDGE( '', *, *, #245, .F. );
#169 = ORIENTED_EDGE( '', *, *, #233, .F. );
#170 = ORIENTED_EDGE( '', *, *, #246, .F. );
#171 = CARTESIAN_POINT( '', ( 0.00655000000000000, 0.000000000000000, 0.000000000000000 ) );
#172 = DIRECTION( '', ( 0.000000000000000, -1.00000000000000, 0.000000000000000 ) );
#173 = DIRECTION( '', ( 0.000000000000000, 0.000000000000000, -1.00000000000000 ) );
#174 = SURFACE_STYLE_FILL_AREA( #247 );
#175 = ORIENTED_EDGE( '', *, *, #248, .F. );
#176 = ORIENTED_EDGE( '', *, *, #241, .T. );
#177 = CARTESIAN_POINT( '', ( 0.00655000000000000, 0.00180000000000000, 0.000000000000000 ) );
#178 = DIRECTION( '', ( 0.000000000000000, 1.00000000000000, 0.000000000000000 ) );
#179 = DIRECTION( '', ( 1.00000000000000, 0.000000000000000, -0.000000000000000 ) );
#180 = SURFACE_STYLE_FILL_AREA( #249 );
#181 = ORIENTED_EDGE( '', *, *, #243, .F. );
#182 = ORIENTED_EDGE( '', *, *, #248, .T. );
#183 = CARTESIAN_POINT( '', ( 0.000000000000000, -0.00241515310536392, 0.000000000000000 ) );
#184 = DIRECTION( '', ( -0.000000000000000, 1.00000000000000, 0.000000000000000 ) );
#185 = DIRECTION( '', ( 0.000000000000000, 0.000000000000000, -1.00000000000000 ) );
#186 = SURFACE_STYLE_FILL_AREA( #250 );
#187 = ORIENTED_EDGE( '', *, *, #232, .F. );
#188 = ORIENTED_EDGE( '', *, *, #251, .T. );
#189 = ORIENTED_EDGE( '', *, *, #230, .T. );
#190 = ORIENTED_EDGE( '', *, *, #246, .T. );
#191 = CARTESIAN_POINT( '', ( 0.00547647016443463, 0.000600000000000000, -0.00359315662587332 ) );
#192 = DIRECTION( '', ( 0.500000000000004, 0.000000000000000, -0.866025403784436 ) );
#193 = DIRECTION( '', ( 0.000000000000000, -1.00000000000000, 0.000000000000000 ) );
#194 = SURFACE_STYLE_FILL_AREA( #252 );
#195 = ORIENTED_EDGE( '', *, *, #239, .F. );
#196 = ORIENTED_EDGE( '', *, *, #253, .F. );
#197 = CARTESIAN_POINT( '', ( -0.00655000000000000, 0.000600000000000000, 0.000000000000000 ) );
#198 = DIRECTION( '', ( -0.499999999999997, -0.866025403784440, 0.000000000000000 ) );
#199 = DIRECTION( '', ( -0.866025403784440, 0.499999999999997, 0.000000000000000 ) );
#200 = SURFACE_STYLE_FILL_AREA( #254 );
#201 = ORIENTED_EDGE( '', *, *, #235, .F. );
#202 = ORIENTED_EDGE( '', *, *, #255, .F. );
#203 = CARTESIAN_POINT( '', ( 0.00327499999999995, 0.000600000000000000, 0.00567246639478811 ) );
#204 = DIRECTION( '', ( 0.249999999999995, -0.866025403784439, 0.433012701892221 ) );
#205 = DIRECTION( '', ( -0.960768922830524, -0.277350098112610, 0.000000000000000 ) );
#206 = SURFACE_STYLE_FILL_AREA( #256 );
#207 = ORIENTED_EDGE( '', *, *, #231, .F. );
#208 = ORIENTED_EDGE( '', *, *, #251, .F. );
#209 = CARTESIAN_POINT( '', ( 0.00327500000000003, 0.000600000000000000, -0.00567246639478806 ) );
#210 = DIRECTION( '', ( 0.250000000000000, -0.866025403784440, -0.433012701892216 ) );
#211 = DIRECTION( '', ( 0.000000000000000, 0.447213595499954, -0.894427190999918 ) );
#212 = SURFACE_STYLE_FILL_AREA( #257 );
#213 = ORIENTED_EDGE( '', *, *, #236, .F. );
#214 = ORIENTED_EDGE( '', *, *, #255, .T. );
#215 = ORIENTED_EDGE( '', *, *, #234, .T. );
#216 = ORIENTED_EDGE( '', *, *, #245, .T. );
#217 = CARTESIAN_POINT( '', ( 0.000373529835565323, 0.000600000000000000, 0.00653934059840459 ) );
#218 = DIRECTION( '', ( 0.499999999999992, 0.000000000000000, 0.866025403784443 ) );
#219 = DIRECTION( '', ( -0.000000000000000, -1.00000000000000, 0.000000000000000 ) );
#220 = SURFACE_STYLE_FILL_AREA( #258 );
#221 = ORIENTED_EDGE( '', *, *, #240, .F. );
#222 = ORIENTED_EDGE( '', *, *, #253, .T. );
#223 = ORIENTED_EDGE( '', *, *, #238, .T. );
#224 = ORIENTED_EDGE( '', *, *, #244, .T. );
#225 = CARTESIAN_POINT( '', ( -0.00585000000000000, 0.000600000000000000, -0.00294618397253125 ) );
#226 = DIRECTION( '', ( -1.00000000000000, 0.000000000000000, 0.000000000000000 ) );
#227 = DIRECTION( '', ( 0.000000000000000, 0.000000000000000, 1.00000000000000 ) );
#228 = FILL_AREA_STYLE( '', ( #259 ) );
#229 = EDGE_CURVE( 'NONE', #260, #261, #262, .T. );
#230 = EDGE_CURVE( 'NONE', #263, #261, #264, .T. );
#231 = EDGE_CURVE( 'NONE', #263, #265, #266, .T. );
#232 = EDGE_CURVE( 'NONE', #265, #267, #268, .T. );
#233 = EDGE_CURVE( 'NONE', #267, #269, #270, .T. );
#234 = EDGE_CURVE( 'NONE', #271, #269, #272, .T. );
#235 = EDGE_CURVE( 'NONE', #271, #273, #274, .T. );
#236 = EDGE_CURVE( 'NONE', #273, #275, #276, .T. );
#237 = EDGE_CURVE( 'NONE', #275, #277, #278, .T. );
#238 = EDGE_CURVE( 'NONE', #279, #277, #280, .T. );
#239 = EDGE_CURVE( 'NONE', #279, #281, #282, .T. );
#240 = EDGE_CURVE( 'NONE', #281, #260, #283, .T. );
#241 = EDGE_CURVE( 'NONE', #284, #284, #285, .T. );
#242 = FILL_AREA_STYLE( '', ( #286 ) );
#243 = EDGE_CURVE( 'NONE', #287, #287, #288, .T. );
#244 = EDGE_CURVE( 'NONE', #277, #260, #289, .T. );
#245 = EDGE_CURVE( 'NONE', #269, #275, #290, .T. );
#246 = EDGE_CURVE( 'NONE', #261, #267, #291, .T. );
#247 = FILL_AREA_STYLE( '', ( #292 ) );
#248 = EDGE_CURVE( 'NONE', #293, #293, #294, .T. );
#249 = FILL_AREA_STYLE( '', ( #295 ) );
#250 = FILL_AREA_STYLE( '', ( #296 ) );
#251 = EDGE_CURVE( 'NONE', #265, #263, #297, .T. );
#252 = FILL_AREA_STYLE( '', ( #298 ) );
#253 = EDGE_CURVE( 'NONE', #281, #279, #299, .T. );
#254 = FILL_AREA_STYLE( '', ( #300 ) );
#255 = EDGE_CURVE( 'NONE', #273, #271, #301, .T. );
#256 = FILL_AREA_STYLE( '', ( #302 ) );
#257 = FILL_AREA_STYLE( '', ( #303 ) );
#258 = FILL_AREA_STYLE( '', ( #304 ) );
#259 = FILL_AREA_STYLE_COLOUR( '', #305 );
#260 = VERTEX_POINT( 'NONE', #306 );
#261 = VERTEX_POINT( 'NONE', #307 );
#262 = CIRCLE( '', #308, 0.00655000000000000 );
#263 = VERTEX_POINT( 'NONE', #309 );
#264 = LINE( '', #310, #311 );
#265 = VERTEX_POINT( 'NONE', #312 );
#266 = ( BOUNDED_CURVE(  )B_SPLINE_CURVE( 3, ( #315, #316, #317, #318 ), .UNSPECIFIED., .F., .F. )B_SPLINE_CURVE_WITH_KNOTS( ( 4, 4 ), ( 2.67505228924991, 3.60813301792968 ), .UNSPECIFIED. )CURVE(  )GEOMETRIC_REPRESENTATION_ITEM(  )RATIONAL_B_SPLINE_CURVE( ( 1.00000000000000, 0.928753180661578, 0.928753180661578, 1.00000000000000 ) )REPRESENTATION_ITEM( '' ) );
#267 = VERTEX_POINT( 'NONE', #324 );
#268 = LINE( '', #325, #326 );
#269 = VERTEX_POINT( 'NONE', #327 );
#270 = CIRCLE( '', #328, 0.00655000000000000 );
#271 = VERTEX_POINT( 'NONE', #329 );
#272 = LINE( '', #330, #331 );
#273 = VERTEX_POINT( 'NONE', #332 );
#274 = ( BOUNDED_CURVE(  )B_SPLINE_CURVE( 3, ( #335, #336, #337, #338 ), .UNSPECIFIED., .F., .F. )B_SPLINE_CURVE_WITH_KNOTS( ( 4, 4 ), ( 2.67505228924991, 3.60813301792968 ), .UNSPECIFIED. )CURVE(  )GEOMETRIC_REPRESENTATION_ITEM(  )RATIONAL_B_SPLINE_CURVE( ( 1.00000000000000, 0.928753180661578, 0.928753180661578, 1.00000000000000 ) )REPRESENTATION_ITEM( '' ) );
#275 = VERTEX_POINT( 'NONE', #344 );
#276 = LINE( '', #345, #346 );
#277 = VERTEX_POINT( 'NONE', #347 );
#278 = CIRCLE( '', #348, 0.00655000000000000 );
#279 = VERTEX_POINT( 'NONE', #349 );
#280 = LINE( '', #350, #351 );
#281 = VERTEX_POINT( 'NONE', #352 );
#282 = ( BOUNDED_CURVE(  )B_SPLINE_CURVE( 3, ( #355, #356, #357, #358 ), .UNSPECIFIED., .F., .F. )B_SPLINE_CURVE_WITH_KNOTS( ( 4, 4 ), ( 2.67505228924991, 3.60813301792968 ), .UNSPECIFIED. )CURVE(  )GEOMETRIC_REPRESENTATION_ITEM(  )RATIONAL_B_SPLINE_CURVE( ( 1.00000000000000, 0.928753180661578, 0.928753180661578, 1.00000000000000 ) )REPRESENTATION_ITEM( '' ) );
#283 = LINE( '', #364, #365 );
#284 = VERTEX_POINT( '', #366 );
#285 = CIRCLE( '', #367, 0.00655000000000000 );
#286 = FILL_AREA_STYLE_COLOUR( '', #368 );
#287 = VERTEX_POINT( '', #369 );
#288 = CIRCLE( '', #370, 0.00895000000000000 );
#289 = LINE( '', #371, #372 );
#290 = LINE( '', #373, #374 );
#291 = LINE( '', #375, #376 );
#292 = FILL_AREA_STYLE_COLOUR( '', #377 );
#293 = VERTEX_POINT( '', #378 );
#294 = CIRCLE( '', #379, 0.00895000000000000 );
#295 = FILL_AREA_STYLE_COLOUR( '', #380 );
#296 = FILL_AREA_STYLE_COLOUR( '', #381 );
#297 = LINE( '', #382, #383 );
#298 = FILL_AREA_STYLE_COLOUR( '', #384 );
#299 = LINE( '', #385, #386 );
#300 = FILL_AREA_STYLE_COLOUR( '', #387 );
#301 = LINE( '', #388, #389 );
#302 = FILL_AREA_STYLE_COLOUR( '', #390 );
#303 = FILL_AREA_STYLE_COLOUR( '', #391 );
#304 = FILL_AREA_STYLE_COLOUR( '', #392 );
#305 = COLOUR_RGB( '', 0.250980407000000, 0.250980407000000, 0.250980407000000 );
#306 = CARTESIAN_POINT( '', ( -0.00585000000000000, 0.000000000000000, -0.00294618397253125 ) );
#307 = CARTESIAN_POINT( '', ( 0.000373529835565419, 0.000000000000000, -0.00653934059840459 ) );
#308 = AXIS2_PLACEMENT_3D( '', #393, #394, #395 );
#309 = CARTESIAN_POINT( '', ( 0.000373529835565414, 0.000195854811567264, -0.00653934059840459 ) );
#310 = CARTESIAN_POINT( '', ( 0.000373529835575414, 0.000600000000010000, -0.00653934059841459 ) );
#311 = VECTOR( '', #396, 1.00000000000000 );
#312 = CARTESIAN_POINT( '', ( 0.00547647016443463, 0.000195854811567264, -0.00359315662587332 ) );
#315 = CARTESIAN_POINT( '', ( 0.000373529835575414, 0.000195854811577264, -0.00653934059841459 ) );
#316 = CARTESIAN_POINT( '', ( 0.00248488331085678, 0.000745049369009143, -0.00641873921597020 ) );
#317 = CARTESIAN_POINT( '', ( 0.00431634956587560, 0.000745049369009143, -0.00536134168062336 ) );
#318 = CARTESIAN_POINT( '', ( 0.00547647016444463, 0.000195854811577264, -0.00359315662588332 ) );
#324 = CARTESIAN_POINT( '', ( 0.00547647016443463, 0.000000000000000, -0.00359315662587332 ) );
#325 = CARTESIAN_POINT( '', ( 0.00547647016444463, 0.000600000000010000, -0.00359315662588332 ) );
#326 = VECTOR( '', #397, 1.00000000000000 );
#327 = CARTESIAN_POINT( '', ( 0.00547647016443458, 0.000000000000000, 0.00359315662587339 ) );
#328 = AXIS2_PLACEMENT_3D( '', #398, #399, #400 );
#329 = CARTESIAN_POINT( '', ( 0.00547647016443458, 0.000195854811567260, 0.00359315662587339 ) );
#330 = CARTESIAN_POINT( '', ( 0.00547647016444458, 0.000600000000010000, 0.00359315662588339 ) );
#331 = VECTOR( '', #401, 1.00000000000000 );
#332 = CARTESIAN_POINT( '', ( 0.000373529835565323, 0.000195854811567260, 0.00653934059840459 ) );
#335 = CARTESIAN_POINT( '', ( 0.00547647016444458, 0.000195854811577260, 0.00359315662588339 ) );
#336 = CARTESIAN_POINT( '', ( 0.00431634956587553, 0.000745049369009144, 0.00536134168062341 ) );
#337 = CARTESIAN_POINT( '', ( 0.00248488331085670, 0.000745049369009145, 0.00641873921597023 ) );
#338 = CARTESIAN_POINT( '', ( 0.000373529835575323, 0.000195854811577260, 0.00653934059841459 ) );
#344 = CARTESIAN_POINT( '', ( 0.000373529835565323, 0.000000000000000, 0.00653934059840459 ) );
#345 = CARTESIAN_POINT( '', ( 0.000373529835575323, 0.000600000000010000, 0.00653934059841459 ) );
#346 = VECTOR( '', #402, 1.00000000000000 );
#347 = CARTESIAN_POINT( '', ( -0.00585000000000000, 0.000000000000000, 0.00294618397253125 ) );
#348 = AXIS2_PLACEMENT_3D( '', #403, #404, #405 );
#349 = CARTESIAN_POINT( '', ( -0.00585000000000000, 0.000195854811567264, 0.00294618397253125 ) );
#350 = CARTESIAN_POINT( '', ( -0.00585000000001000, 0.000600000000010000, 0.00294618397254125 ) );
#351 = VECTOR( '', #406, 1.00000000000000 );
#352 = CARTESIAN_POINT( '', ( -0.00585000000000000, 0.000195854811567264, -0.00294618397253125 ) );
#355 = CARTESIAN_POINT( '', ( -0.00585000000001000, 0.000195854811577264, 0.00294618397254125 ) );
#356 = CARTESIAN_POINT( '', ( -0.00680123287672233, 0.000745049369009145, 0.00105739753535683 ) );
#357 = CARTESIAN_POINT( '', ( -0.00680123287672233, 0.000745049369009145, -0.00105739753535683 ) );
#358 = CARTESIAN_POINT( '', ( -0.00585000000001000, 0.000195854811577264, -0.00294618397254125 ) );
#364 = CARTESIAN_POINT( '', ( -0.00585000000001000, 0.000600000000010000, -0.00294618397254125 ) );
#365 = VECTOR( '', #407, 1.00000000000000 );
#366 = CARTESIAN_POINT( '', ( 0.000000000000000, 0.00180000000001000, -0.00655000000001000 ) );
#367 = AXIS2_PLACEMENT_3D( '', #408, #409, #410 );
#368 = COLOUR_RGB( '', 0.250980407000000, 0.250980407000000, 0.250980407000000 );
#369 = CARTESIAN_POINT( '', ( 0.000000000000000, 0.000000000000000, -0.00895000000001000 ) );
#370 = AXIS2_PLACEMENT_3D( '', #411, #412, #413 );
#371 = CARTESIAN_POINT( '', ( -0.00585000000001000, 0.000000000000000, -0.00294618397254125 ) );
#372 = VECTOR( '', #414, 1.00000000000000 );
#373 = CARTESIAN_POINT( '', ( 0.000373529835575323, 0.000000000000000, 0.00653934059841459 ) );
#374 = VECTOR( '', #415, 1.00000000000000 );
#375 = CARTESIAN_POINT( '', ( 0.00547647016444463, 0.000000000000000, -0.00359315662588332 ) );
#376 = VECTOR( '', #416, 1.00000000000000 );
#377 = COLOUR_RGB( '', 0.250980407000000, 0.250980407000000, 0.250980407000000 );
#378 = CARTESIAN_POINT( '', ( 0.000000000000000, 0.00180000000001000, -0.00895000000001000 ) );
#379 = AXIS2_PLACEMENT_3D( '', #417, #418, #419 );
#380 = COLOUR_RGB( '', 0.250980407000000, 0.250980407000000, 0.250980407000000 );
#381 = COLOUR_RGB( '', 0.250980407000000, 0.250980407000000, 0.250980407000000 );
#382 = CARTESIAN_POINT( '', ( 0.00547647016444463, 0.000195854811577264, -0.00359315662588332 ) );
#383 = VECTOR( '', #420, 1.00000000000000 );
#384 = COLOUR_RGB( '', 0.250980407000000, 0.250980407000000, 0.250980407000000 );
#385 = CARTESIAN_POINT( '', ( -0.00585000000001000, 0.000195854811577264, -0.00294618397254125 ) );
#386 = VECTOR( '', #421, 1.00000000000000 );
#387 = COLOUR_RGB( '', 0.250980407000000, 0.250980407000000, 0.250980407000000 );
#388 = CARTESIAN_POINT( '', ( 0.000373529835575323, 0.000195854811577260, 0.00653934059841459 ) );
#389 = VECTOR( '', #422, 1.00000000000000 );
#390 = COLOUR_RGB( '', 0.250980407000000, 0.250980407000000, 0.250980407000000 );
#391 = COLOUR_RGB( '', 0.250980407000000, 0.250980407000000, 0.250980407000000 );
#392 = COLOUR_RGB( '', 0.250980407000000, 0.250980407000000, 0.250980407000000 );
#393 = CARTESIAN_POINT( '', ( 0.000000000000000, 0.000000000000000, 0.000000000000000 ) );
#394 = DIRECTION( '', ( 0.000000000000000, -1.00000000000000, 0.000000000000000 ) );
#395 = DIRECTION( '', ( 0.000000000000000, 0.000000000000000, -1.00000000000000 ) );
#396 = DIRECTION( '', ( 0.000000000000000, -1.00000000000000, 0.000000000000000 ) );
#397 = DIRECTION( '', ( 0.000000000000000, -1.00000000000000, 0.000000000000000 ) );
#398 = CARTESIAN_POINT( '', ( 0.000000000000000, 0.000000000000000, 0.000000000000000 ) );
#399 = DIRECTION( '', ( 0.000000000000000, -1.00000000000000, 0.000000000000000 ) );
#400 = DIRECTION( '', ( 0.000000000000000, 0.000000000000000, -1.00000000000000 ) );
#401 = DIRECTION( '', ( 0.000000000000000, -1.00000000000000, 0.000000000000000 ) );
#402 = DIRECTION( '', ( 0.000000000000000, -1.00000000000000, 0.000000000000000 ) );
#403 = CARTESIAN_POINT( '', ( 0.000000000000000, 0.000000000000000, 0.000000000000000 ) );
#404 = DIRECTION( '', ( 0.000000000000000, -1.00000000000000, 0.000000000000000 ) );
#405 = DIRECTION( '', ( 0.000000000000000, 0.000000000000000, -1.00000000000000 ) );
#406 = DIRECTION( '', ( 0.000000000000000, -1.00000000000000, 0.000000000000000 ) );
#407 = DIRECTION( '', ( 0.000000000000000, -1.00000000000000, 0.000000000000000 ) );
#408 = CARTESIAN_POINT( '', ( 0.000000000000000, 0.00180000000001000, 0.000000000000000 ) );
#409 = DIRECTION( '', ( 0.000000000000000, -1.00000000000000, 0.000000000000000 ) );
#410 = DIRECTION( '', ( 0.000000000000000, 0.000000000000000, -1.00000000000000 ) );
#411 = CARTESIAN_POINT( '', ( 0.000000000000000, 0.000000000000000, 0.000000000000000 ) );
#412 = DIRECTION( '', ( 0.000000000000000, -1.00000000000000, 0.000000000000000 ) );
#413 = DIRECTION( '', ( 0.000000000000000, 0.000000000000000, -1.00000000000000 ) );
#414 = DIRECTION( '', ( 0.000000000000000, 0.000000000000000, -1.00000000000000 ) );
#415 = DIRECTION( '', ( -0.866025403784441, 0.000000000000000, 0.499999999999995 ) );
#416 = DIRECTION( '', ( 0.866025403784434, 0.000000000000000, 0.500000000000007 ) );
#417 = CARTESIAN_POINT( '', ( 0.000000000000000, 0.00180000000001000, 0.000000000000000 ) );
#418 = DIRECTION( '', ( 0.000000000000000, -1.00000000000000, 0.000000000000000 ) );
#419 = DIRECTION( '', ( 0.000000000000000, 0.000000000000000, -1.00000000000000 ) );
#420 = DIRECTION( '', ( -0.866025403784434, 0.000000000000000, -0.500000000000007 ) );
#421 = DIRECTION( '', ( 0.000000000000000, 0.000000000000000, 1.00000000000000 ) );
#422 = DIRECTION( '', ( 0.866025403784441, 0.000000000000000, -0.499999999999995 ) );
ENDSEC;
END-ISO-10303-21;
