ISO-10303-21;
HEADER;
/****************************************************************
 * Generated by software with PDElib inside                    *
 * PDElib Version v51a, created Tue 11/30/2010                  *
 * ITI Transcendata (http://www.transcendata.com/)              *
 ****************************************************************/
FILE_DESCRIPTION((''),'2;1');
FILE_NAME('M:\\3D-Files nach Lieferanten\\Praher\\PV50350A\\PV50350A012.stp','2022-02-21T14:15:05',('RL'),(''),'Autodesk Inventor 2012','Autodesk Inventor 2012','');
FILE_SCHEMA(('AUTOMOTIVE_DESIGN { 1 0 10303 214 1 1 1 1 }'));
ENDSEC;
DATA;
#5=APPLICATION_CONTEXT('automotive design');
#6=APPLICATION_PROTOCOL_DEFINITION('International Standard','automotive_design',2001,#5);
#7=PRODUCT_CONTEXT('',#5,'mechanical');
#8=PRODUCT('PV50350A012','PV50350A012',$,(#7));
#9=PRODUCT_RELATED_PRODUCT_CATEGORY('part',$,(#8));
#10=PRODUCT_DEFINITION_FORMATION('',$,#8);
#11=PRODUCT_DEFINITION_CONTEXT('part definition',#5,'design');
#12=PRODUCT_DEFINITION('',$,#10,#11);
#18=(NAMED_UNIT(*)PLANE_ANGLE_UNIT()SI_UNIT($,.RADIAN.));
#19=DIMENSIONAL_EXPONENTS(0.0,0.0,0.0,0.0,0.0,0.0,0.0);
#20=PLANE_ANGLE_MEASURE_WITH_UNIT(PLANE_ANGLE_MEASURE(0.0174532925),#18);
#24=(CONVERSION_BASED_UNIT('DEGREE',#20)NAMED_UNIT(#19)PLANE_ANGLE_UNIT());
#28=(NAMED_UNIT(*)SI_UNIT($,.STERADIAN.)SOLID_ANGLE_UNIT());
#32=(LENGTH_UNIT()NAMED_UNIT(*)SI_UNIT(.MILLI.,.METRE.));
#34=UNCERTAINTY_MEASURE_WITH_UNIT(LENGTH_MEASURE(0.01),#32,'DISTANCE_ACCURACY_VALUE','');
#36=(GEOMETRIC_REPRESENTATION_CONTEXT(3)GLOBAL_UNCERTAINTY_ASSIGNED_CONTEXT((#34))GLOBAL_UNIT_ASSIGNED_CONTEXT((#24,#28,#32))REPRESENTATION_CONTEXT('None','None'));
#37=AXIS2_PLACEMENT_3D('',#38,#39,#40);
#38=CARTESIAN_POINT('',(0.0,0.0,0.0));
#39=DIRECTION('',(0.0,0.0,1.0));
#40=DIRECTION('',(1.0,0.0,0.0));
#41=SHAPE_REPRESENTATION('',(#37),#36);
#42=PRODUCT_DEFINITION_SHAPE('','',#12);
#43=SHAPE_DEFINITION_REPRESENTATION(#42,#41);
#49=(NAMED_UNIT(*)PLANE_ANGLE_UNIT()SI_UNIT($,.RADIAN.));
#50=DIMENSIONAL_EXPONENTS(0.0,0.0,0.0,0.0,0.0,0.0,0.0);
#51=PLANE_ANGLE_MEASURE_WITH_UNIT(PLANE_ANGLE_MEASURE(0.0174532925),#49);
#55=(CONVERSION_BASED_UNIT('DEGREE',#51)NAMED_UNIT(#50)PLANE_ANGLE_UNIT());
#59=(NAMED_UNIT(*)SI_UNIT($,.STERADIAN.)SOLID_ANGLE_UNIT());
#63=(LENGTH_UNIT()NAMED_UNIT(*)SI_UNIT(.MILLI.,.METRE.));
#65=UNCERTAINTY_MEASURE_WITH_UNIT(LENGTH_MEASURE(0.000001),#63,'DISTANCE_ACCURACY_VALUE','');
#67=(GEOMETRIC_REPRESENTATION_CONTEXT(3)GLOBAL_UNCERTAINTY_ASSIGNED_CONTEXT((#65))GLOBAL_UNIT_ASSIGNED_CONTEXT((#55,#59,#63))REPRESENTATION_CONTEXT('','3D'));
#68=CARTESIAN_POINT('',(22.949999999999999,0.0,0.0));
#69=DIRECTION('',(-1.0,0.0,0.0));
#70=DIRECTION('',(0.0,0.0,-1.0));
#71=AXIS2_PLACEMENT_3D('',#68,#69,#70);
#72=CYLINDRICAL_SURFACE('',#71,8.5);
#73=CARTESIAN_POINT('',(18.899999999999999,-1.040950E-015,8.5));
#74=VERTEX_POINT('',#73);
#75=CARTESIAN_POINT('',(18.899999999999999,0.0,0.0));
#76=DIRECTION('',(-1.0,0.0,0.0));
#77=DIRECTION('',(0.0,0.0,-1.0));
#78=AXIS2_PLACEMENT_3D('',#75,#76,#77);
#79=CIRCLE('',#78,8.5);
#80=EDGE_CURVE('',#74,#74,#79,.T.);
#81=ORIENTED_EDGE('',*,*,#80,.F.);
#82=EDGE_LOOP('',(#81));
#83=FACE_OUTER_BOUND('',#82,.T.);
#84=CARTESIAN_POINT('',(27.0,-1.040950E-015,8.5));
#85=VERTEX_POINT('',#84);
#86=CARTESIAN_POINT('',(27.0,0.0,0.0));
#87=DIRECTION('',(1.0,0.0,0.0));
#88=DIRECTION('',(0.0,0.0,-1.0));
#89=AXIS2_PLACEMENT_3D('',#86,#87,#88);
#90=CIRCLE('',#89,8.5);
#91=EDGE_CURVE('',#85,#85,#90,.T.);
#92=ORIENTED_EDGE('',*,*,#91,.F.);
#93=EDGE_LOOP('',(#92));
#94=FACE_BOUND('',#93,.T.);
#95=ADVANCED_FACE('',(#83,#94),#72,.T.);
#96=CARTESIAN_POINT('',(4.050000000000001,0.0,0.0));
#97=DIRECTION('',(1.0,0.0,0.0));
#98=DIRECTION('',(0.0,0.0,-1.0));
#99=AXIS2_PLACEMENT_3D('',#96,#97,#98);
#100=CYLINDRICAL_SURFACE('',#99,8.5);
#101=CARTESIAN_POINT('',(8.100000000000001,1.040950E-015,8.5));
#102=VERTEX_POINT('',#101);
#103=CARTESIAN_POINT('',(8.100000000000001,0.0,0.0));
#104=DIRECTION('',(1.0,0.0,0.0));
#105=DIRECTION('',(0.0,0.0,-1.0));
#106=AXIS2_PLACEMENT_3D('',#103,#104,#105);
#107=CIRCLE('',#106,8.5);
#108=EDGE_CURVE('',#102,#102,#107,.T.);
#109=ORIENTED_EDGE('',*,*,#108,.F.);
#110=EDGE_LOOP('',(#109));
#111=FACE_OUTER_BOUND('',#110,.T.);
#112=CARTESIAN_POINT('',(0.0,1.040950E-015,8.5));
#113=VERTEX_POINT('',#112);
#114=CARTESIAN_POINT('',(0.0,0.0,0.0));
#115=DIRECTION('',(-1.0,0.0,0.0));
#116=DIRECTION('',(0.0,0.0,-1.0));
#117=AXIS2_PLACEMENT_3D('',#114,#115,#116);
#118=CIRCLE('',#117,8.5);
#119=EDGE_CURVE('',#113,#113,#118,.T.);
#120=ORIENTED_EDGE('',*,*,#119,.F.);
#121=EDGE_LOOP('',(#120));
#122=FACE_BOUND('',#121,.T.);
#123=ADVANCED_FACE('',(#111,#122),#100,.T.);
#124=CARTESIAN_POINT('',(13.5,0.0,0.0));
#125=DIRECTION('',(-1.0,0.0,0.0));
#126=DIRECTION('',(0.0,0.0,-1.0));
#127=AXIS2_PLACEMENT_3D('',#124,#125,#126);
#128=CYLINDRICAL_SURFACE('',#127,4.0);
#129=CARTESIAN_POINT('',(15.5,-4.898587E-016,4.0));
#130=VERTEX_POINT('',#129);
#131=CARTESIAN_POINT('',(15.5,0.0,0.0));
#132=DIRECTION('',(1.0,0.0,0.0));
#133=DIRECTION('',(0.0,0.0,-1.0));
#134=AXIS2_PLACEMENT_3D('',#131,#132,#133);
#135=CIRCLE('',#134,4.0);
#136=EDGE_CURVE('',#130,#130,#135,.T.);
#137=ORIENTED_EDGE('',*,*,#136,.T.);
#138=EDGE_LOOP('',(#137));
#139=FACE_OUTER_BOUND('',#138,.T.);
#140=CARTESIAN_POINT('',(11.500000000000002,4.898587E-016,4.0));
#141=VERTEX_POINT('',#140);
#142=CARTESIAN_POINT('',(11.500000000000002,0.0,0.0));
#143=DIRECTION('',(-1.0,0.0,0.0));
#144=DIRECTION('',(0.0,0.0,-1.0));
#145=AXIS2_PLACEMENT_3D('',#142,#143,#144);
#146=CIRCLE('',#145,4.0);
#147=EDGE_CURVE('',#141,#141,#146,.T.);
#148=ORIENTED_EDGE('',*,*,#147,.T.);
#149=EDGE_LOOP('',(#148));
#150=FACE_BOUND('',#149,.T.);
#151=ADVANCED_FACE('',(#139,#150),#128,.F.);
#152=CARTESIAN_POINT('',(21.25,0.0,0.0));
#153=DIRECTION('',(-1.0,0.0,0.0));
#154=DIRECTION('',(0.0,0.0,-1.0));
#155=AXIS2_PLACEMENT_3D('',#152,#153,#154);
#156=CYLINDRICAL_SURFACE('',#155,6.000000000000001);
#157=CARTESIAN_POINT('',(26.433962264150903,-7.347881E-016,6.000000000000001));
#158=VERTEX_POINT('',#157);
#159=CARTESIAN_POINT('',(26.433962264150903,0.0,0.0));
#160=DIRECTION('',(1.0,0.0,0.0));
#161=DIRECTION('',(0.0,0.0,-1.0));
#162=AXIS2_PLACEMENT_3D('',#159,#160,#161);
#163=CIRCLE('',#162,6.000000000000001);
#164=EDGE_CURVE('',#158,#158,#163,.T.);
#165=ORIENTED_EDGE('',*,*,#164,.T.);
#166=EDGE_LOOP('',(#165));
#167=FACE_OUTER_BOUND('',#166,.T.);
#168=CARTESIAN_POINT('',(15.5,-7.347881E-016,6.000000000000001));
#169=VERTEX_POINT('',#168);
#170=CARTESIAN_POINT('',(15.5,0.0,0.0));
#171=DIRECTION('',(-1.0,0.0,0.0));
#172=DIRECTION('',(0.0,0.0,-1.0));
#173=AXIS2_PLACEMENT_3D('',#170,#171,#172);
#174=CIRCLE('',#173,6.000000000000001);
#175=EDGE_CURVE('',#169,#169,#174,.T.);
#176=ORIENTED_EDGE('',*,*,#175,.T.);
#177=EDGE_LOOP('',(#176));
#178=FACE_BOUND('',#177,.T.);
#179=ADVANCED_FACE('',(#167,#178),#156,.F.);
#180=CARTESIAN_POINT('',(5.750000000000001,0.0,0.0));
#181=DIRECTION('',(-1.0,0.0,0.0));
#182=DIRECTION('',(0.0,0.0,1.0));
#183=AXIS2_PLACEMENT_3D('',#180,#181,#182);
#184=CYLINDRICAL_SURFACE('',#183,5.725);
#185=CARTESIAN_POINT('',(11.500000000000002,7.011103E-016,-5.725));
#186=VERTEX_POINT('',#185);
#187=CARTESIAN_POINT('',(11.500000000000002,0.0,0.0));
#188=DIRECTION('',(-1.0,0.0,0.0));
#189=DIRECTION('',(0.0,0.0,1.0));
#190=AXIS2_PLACEMENT_3D('',#187,#188,#189);
#191=CIRCLE('',#190,5.725);
#192=EDGE_CURVE('',#186,#186,#191,.T.);
#193=ORIENTED_EDGE('',*,*,#192,.F.);
#194=EDGE_LOOP('',(#193));
#195=FACE_OUTER_BOUND('',#194,.T.);
#196=CARTESIAN_POINT('',(0.0,7.011103E-016,-5.725));
#197=VERTEX_POINT('',#196);
#198=CARTESIAN_POINT('',(0.0,0.0,0.0));
#199=DIRECTION('',(1.0,0.0,0.0));
#200=DIRECTION('',(0.0,0.0,1.0));
#201=AXIS2_PLACEMENT_3D('',#198,#199,#200);
#202=CIRCLE('',#201,5.725);
#203=EDGE_CURVE('',#197,#197,#202,.T.);
#204=ORIENTED_EDGE('',*,*,#203,.F.);
#205=EDGE_LOOP('',(#204));
#206=FACE_BOUND('',#205,.T.);
#207=ADVANCED_FACE('',(#195,#206),#184,.F.);
#208=CARTESIAN_POINT('',(24.000000000000004,0.0,0.0));
#209=DIRECTION('',(1.0,0.0,0.0));
#210=DIRECTION('',(0.0,0.0,-1.0));
#211=AXIS2_PLACEMENT_3D('',#208,#209,#210);
#212=CONICAL_SURFACE('',#211,3.3125,47.834111016306537);
#213=CARTESIAN_POINT('',(27.0,-8.113285E-016,6.625000000000001));
#214=VERTEX_POINT('',#213);
#215=CARTESIAN_POINT('',(27.0,0.0,0.0));
#216=DIRECTION('',(-1.0,0.0,0.0));
#217=DIRECTION('',(0.0,0.0,-1.0));
#218=AXIS2_PLACEMENT_3D('',#215,#216,#217);
#219=CIRCLE('',#218,6.625000000000001);
#220=EDGE_CURVE('',#214,#214,#219,.T.);
#221=ORIENTED_EDGE('',*,*,#220,.F.);
#222=EDGE_LOOP('',(#221));
#223=FACE_OUTER_BOUND('',#222,.T.);
#224=ORIENTED_EDGE('',*,*,#164,.F.);
#225=EDGE_LOOP('',(#224));
#226=FACE_BOUND('',#225,.T.);
#227=ADVANCED_FACE('',(#223,#226),#212,.F.);
#228=CARTESIAN_POINT('',(11.500000000000002,0.0,2.8625));
#229=DIRECTION('',(1.0,0.0,0.0));
#230=DIRECTION('',(0.0,0.0,-1.0));
#231=AXIS2_PLACEMENT_3D('',#228,#229,#230);
#232=PLANE('',#231);
#233=ORIENTED_EDGE('',*,*,#192,.T.);
#234=EDGE_LOOP('',(#233));
#235=FACE_OUTER_BOUND('',#234,.T.);
#236=ORIENTED_EDGE('',*,*,#147,.F.);
#237=EDGE_LOOP('',(#236));
#238=FACE_BOUND('',#237,.T.);
#239=ADVANCED_FACE('',(#235,#238),#232,.F.);
#240=CARTESIAN_POINT('',(15.5,0.0,0.0));
#241=DIRECTION('',(-1.0,0.0,0.0));
#242=DIRECTION('',(0.0,0.0,1.0));
#243=AXIS2_PLACEMENT_3D('',#240,#241,#242);
#244=PLANE('',#243);
#245=ORIENTED_EDGE('',*,*,#175,.F.);
#246=EDGE_LOOP('',(#245));
#247=FACE_OUTER_BOUND('',#246,.T.);
#248=ORIENTED_EDGE('',*,*,#136,.F.);
#249=EDGE_LOOP('',(#248));
#250=FACE_BOUND('',#249,.T.);
#251=ADVANCED_FACE('',(#247,#250),#244,.F.);
#252=CARTESIAN_POINT('',(0.0,0.0,0.0));
#253=DIRECTION('',(-1.0,0.0,0.0));
#254=DIRECTION('',(0.0,0.0,1.0));
#255=AXIS2_PLACEMENT_3D('',#252,#253,#254);
#256=PLANE('',#255);
#257=ORIENTED_EDGE('',*,*,#119,.T.);
#258=EDGE_LOOP('',(#257));
#259=FACE_OUTER_BOUND('',#258,.T.);
#260=ORIENTED_EDGE('',*,*,#203,.T.);
#261=EDGE_LOOP('',(#260));
#262=FACE_BOUND('',#261,.T.);
#263=ADVANCED_FACE('',(#259,#262),#256,.T.);
#264=CARTESIAN_POINT('',(18.899999999999999,1.110223E-016,0.0));
#265=DIRECTION('',(-1.0,0.0,0.0));
#266=DIRECTION('',(0.0,0.0,1.0));
#267=AXIS2_PLACEMENT_3D('',#264,#265,#266);
#268=PLANE('',#267);
#269=CARTESIAN_POINT('',(18.899999999999999,4.5563491861,-11.0));
#270=VERTEX_POINT('',#269);
#271=CARTESIAN_POINT('',(18.899999999999999,-4.5563491861,-11.0));
#272=VERTEX_POINT('',#271);
#273=CARTESIAN_POINT('',(18.899999999999999,4.5563491861,-11.0));
#274=DIRECTION('',(0.0,-1.0,0.0));
#275=VECTOR('',#274,9.112698372200001);
#276=LINE('',#273,#275);
#277=EDGE_CURVE('',#270,#272,#276,.T.);
#278=ORIENTED_EDGE('',*,*,#277,.F.);
#279=CARTESIAN_POINT('',(18.899999999999999,11.0,-4.5563491861));
#280=VERTEX_POINT('',#279);
#281=CARTESIAN_POINT('',(18.899999999999999,11.0,-4.5563491861));
#282=DIRECTION('',(0.0,-0.707106781186547,-0.707106781186547));
#283=VECTOR('',#282,9.112698372213814);
#284=LINE('',#281,#283);
#285=EDGE_CURVE('',#280,#270,#284,.T.);
#286=ORIENTED_EDGE('',*,*,#285,.F.);
#287=CARTESIAN_POINT('',(18.899999999999999,11.0,4.5563491861));
#288=VERTEX_POINT('',#287);
#289=CARTESIAN_POINT('',(18.899999999999999,11.0,4.5563491861));
#290=DIRECTION('',(0.0,0.0,-1.0));
#291=VECTOR('',#290,9.112698372200001);
#292=LINE('',#289,#291);
#293=EDGE_CURVE('',#288,#280,#292,.T.);
#294=ORIENTED_EDGE('',*,*,#293,.F.);
#295=CARTESIAN_POINT('',(18.899999999999999,4.5563491861,11.0));
#296=VERTEX_POINT('',#295);
#297=CARTESIAN_POINT('',(18.899999999999999,4.5563491861,11.0));
#298=DIRECTION('',(0.0,0.707106781186547,-0.707106781186547));
#299=VECTOR('',#298,9.112698372213814);
#300=LINE('',#297,#299);
#301=EDGE_CURVE('',#296,#288,#300,.T.);
#302=ORIENTED_EDGE('',*,*,#301,.F.);
#303=CARTESIAN_POINT('',(18.899999999999999,-4.5563491861,11.0));
#304=VERTEX_POINT('',#303);
#305=CARTESIAN_POINT('',(18.899999999999999,-4.5563491861,11.0));
#306=DIRECTION('',(0.0,1.0,0.0));
#307=VECTOR('',#306,9.112698372200001);
#308=LINE('',#305,#307);
#309=EDGE_CURVE('',#304,#296,#308,.T.);
#310=ORIENTED_EDGE('',*,*,#309,.F.);
#311=CARTESIAN_POINT('',(18.899999999999999,-11.0,4.5563491861));
#312=VERTEX_POINT('',#311);
#313=CARTESIAN_POINT('',(18.899999999999999,-11.0,4.5563491861));
#314=DIRECTION('',(0.0,0.707106781186547,0.707106781186547));
#315=VECTOR('',#314,9.112698372213814);
#316=LINE('',#313,#315);
#317=EDGE_CURVE('',#312,#304,#316,.T.);
#318=ORIENTED_EDGE('',*,*,#317,.F.);
#319=CARTESIAN_POINT('',(18.899999999999999,-11.0,-4.5563491861));
#320=VERTEX_POINT('',#319);
#321=CARTESIAN_POINT('',(18.899999999999999,-11.0,-4.5563491861));
#322=DIRECTION('',(0.0,0.0,1.0));
#323=VECTOR('',#322,9.112698372200001);
#324=LINE('',#321,#323);
#325=EDGE_CURVE('',#320,#312,#324,.T.);
#326=ORIENTED_EDGE('',*,*,#325,.F.);
#327=CARTESIAN_POINT('',(18.899999999999999,-4.5563491861,-11.0));
#328=DIRECTION('',(0.0,-0.707106781186547,0.707106781186547));
#329=VECTOR('',#328,9.112698372213814);
#330=LINE('',#327,#329);
#331=EDGE_CURVE('',#272,#320,#330,.T.);
#332=ORIENTED_EDGE('',*,*,#331,.F.);
#333=EDGE_LOOP('',(#278,#286,#294,#302,#310,#318,#326,#332));
#334=FACE_OUTER_BOUND('',#333,.T.);
#335=ORIENTED_EDGE('',*,*,#80,.T.);
#336=EDGE_LOOP('',(#335));
#337=FACE_BOUND('',#336,.T.);
#338=ADVANCED_FACE('',(#334,#337),#268,.F.);
#339=CARTESIAN_POINT('',(18.899999999999999,7.77817459305,-7.77817459305));
#340=DIRECTION('',(0.0,0.707106781186548,-0.707106781186548));
#341=DIRECTION('',(-1.0,0.0,0.0));
#342=AXIS2_PLACEMENT_3D('',#339,#340,#341);
#343=PLANE('',#342);
#344=CARTESIAN_POINT('',(8.100000000000001,4.5563491861,-11.0));
#345=VERTEX_POINT('',#344);
#346=CARTESIAN_POINT('',(8.100000000000001,11.0,-4.5563491861));
#347=VERTEX_POINT('',#346);
#348=CARTESIAN_POINT('',(8.100000000000001,4.556349186099999,-10.999999999999998));
#349=DIRECTION('',(0.0,0.707106781186548,0.707106781186548));
#350=VECTOR('',#349,9.112698372213812);
#351=LINE('',#348,#350);
#352=EDGE_CURVE('',#345,#347,#351,.T.);
#353=ORIENTED_EDGE('',*,*,#352,.T.);
#354=CARTESIAN_POINT('',(18.899999999999999,11.0,-4.5563491861));
#355=DIRECTION('',(-1.0,0.0,0.0));
#356=VECTOR('',#355,10.799999999999999);
#357=LINE('',#354,#356);
#358=EDGE_CURVE('',#280,#347,#357,.T.);
#359=ORIENTED_EDGE('',*,*,#358,.F.);
#360=ORIENTED_EDGE('',*,*,#285,.T.);
#361=CARTESIAN_POINT('',(18.899999999999999,4.5563491861,-11.0));
#362=DIRECTION('',(-1.0,0.0,0.0));
#363=VECTOR('',#362,10.799999999999999);
#364=LINE('',#361,#363);
#365=EDGE_CURVE('',#270,#345,#364,.T.);
#366=ORIENTED_EDGE('',*,*,#365,.T.);
#367=EDGE_LOOP('',(#353,#359,#360,#366));
#368=FACE_OUTER_BOUND('',#367,.T.);
#369=ADVANCED_FACE('',(#368),#343,.T.);
#370=CARTESIAN_POINT('',(18.899999999999999,11.0,0.0));
#371=DIRECTION('',(0.0,1.0,0.0));
#372=DIRECTION('',(0.0,0.0,1.0));
#373=AXIS2_PLACEMENT_3D('',#370,#371,#372);
#374=PLANE('',#373);
#375=CARTESIAN_POINT('',(8.100000000000001,11.0,4.5563491861));
#376=VERTEX_POINT('',#375);
#377=CARTESIAN_POINT('',(8.100000000000001,11.0,-4.5563491861));
#378=DIRECTION('',(0.0,0.0,1.0));
#379=VECTOR('',#378,9.112698372200001);
#380=LINE('',#377,#379);
#381=EDGE_CURVE('',#347,#376,#380,.T.);
#382=ORIENTED_EDGE('',*,*,#381,.T.);
#383=CARTESIAN_POINT('',(18.899999999999999,11.0,4.5563491861));
#384=DIRECTION('',(-1.0,0.0,0.0));
#385=VECTOR('',#384,10.799999999999999);
#386=LINE('',#383,#385);
#387=EDGE_CURVE('',#288,#376,#386,.T.);
#388=ORIENTED_EDGE('',*,*,#387,.F.);
#389=ORIENTED_EDGE('',*,*,#293,.T.);
#390=ORIENTED_EDGE('',*,*,#358,.T.);
#391=EDGE_LOOP('',(#382,#388,#389,#390));
#392=FACE_OUTER_BOUND('',#391,.T.);
#393=ADVANCED_FACE('',(#392),#374,.T.);
#394=CARTESIAN_POINT('',(18.899999999999999,7.77817459305,7.77817459305));
#395=DIRECTION('',(0.0,0.707106781186548,0.707106781186548));
#396=DIRECTION('',(1.0,0.0,0.0));
#397=AXIS2_PLACEMENT_3D('',#394,#395,#396);
#398=PLANE('',#397);
#399=CARTESIAN_POINT('',(8.100000000000001,4.5563491861,11.0));
#400=VERTEX_POINT('',#399);
#401=CARTESIAN_POINT('',(8.100000000000001,10.999999999999998,4.556349186099999));
#402=DIRECTION('',(0.0,-0.707106781186548,0.707106781186548));
#403=VECTOR('',#402,9.112698372213812);
#404=LINE('',#401,#403);
#405=EDGE_CURVE('',#376,#400,#404,.T.);
#406=ORIENTED_EDGE('',*,*,#405,.T.);
#407=CARTESIAN_POINT('',(18.899999999999999,4.5563491861,11.0));
#408=DIRECTION('',(-1.0,0.0,0.0));
#409=VECTOR('',#408,10.799999999999999);
#410=LINE('',#407,#409);
#411=EDGE_CURVE('',#296,#400,#410,.T.);
#412=ORIENTED_EDGE('',*,*,#411,.F.);
#413=ORIENTED_EDGE('',*,*,#301,.T.);
#414=ORIENTED_EDGE('',*,*,#387,.T.);
#415=EDGE_LOOP('',(#406,#412,#413,#414));
#416=FACE_OUTER_BOUND('',#415,.T.);
#417=ADVANCED_FACE('',(#416),#398,.T.);
#418=CARTESIAN_POINT('',(18.899999999999999,0.0,11.0));
#419=DIRECTION('',(0.0,0.0,1.0));
#420=DIRECTION('',(1.0,0.0,0.0));
#421=AXIS2_PLACEMENT_3D('',#418,#419,#420);
#422=PLANE('',#421);
#423=CARTESIAN_POINT('',(8.100000000000001,-4.5563491861,11.0));
#424=VERTEX_POINT('',#423);
#425=CARTESIAN_POINT('',(8.100000000000001,4.5563491861,11.0));
#426=DIRECTION('',(0.0,-1.0,0.0));
#427=VECTOR('',#426,9.112698372200001);
#428=LINE('',#425,#427);
#429=EDGE_CURVE('',#400,#424,#428,.T.);
#430=ORIENTED_EDGE('',*,*,#429,.T.);
#431=CARTESIAN_POINT('',(18.899999999999999,-4.5563491861,11.0));
#432=DIRECTION('',(-1.0,0.0,0.0));
#433=VECTOR('',#432,10.799999999999999);
#434=LINE('',#431,#433);
#435=EDGE_CURVE('',#304,#424,#434,.T.);
#436=ORIENTED_EDGE('',*,*,#435,.F.);
#437=ORIENTED_EDGE('',*,*,#309,.T.);
#438=ORIENTED_EDGE('',*,*,#411,.T.);
#439=EDGE_LOOP('',(#430,#436,#437,#438));
#440=FACE_OUTER_BOUND('',#439,.T.);
#441=ADVANCED_FACE('',(#440),#422,.T.);
#442=CARTESIAN_POINT('',(18.899999999999999,-7.77817459305,7.77817459305));
#443=DIRECTION('',(0.0,-0.707106781186548,0.707106781186548));
#444=DIRECTION('',(1.0,0.0,0.0));
#445=AXIS2_PLACEMENT_3D('',#442,#443,#444);
#446=PLANE('',#445);
#447=CARTESIAN_POINT('',(8.100000000000001,-11.0,4.5563491861));
#448=VERTEX_POINT('',#447);
#449=CARTESIAN_POINT('',(8.100000000000001,-4.556349186099999,10.999999999999998));
#450=DIRECTION('',(0.0,-0.707106781186548,-0.707106781186548));
#451=VECTOR('',#450,9.112698372213812);
#452=LINE('',#449,#451);
#453=EDGE_CURVE('',#424,#448,#452,.T.);
#454=ORIENTED_EDGE('',*,*,#453,.T.);
#455=CARTESIAN_POINT('',(18.899999999999999,-11.0,4.5563491861));
#456=DIRECTION('',(-1.0,0.0,0.0));
#457=VECTOR('',#456,10.799999999999999);
#458=LINE('',#455,#457);
#459=EDGE_CURVE('',#312,#448,#458,.T.);
#460=ORIENTED_EDGE('',*,*,#459,.F.);
#461=ORIENTED_EDGE('',*,*,#317,.T.);
#462=ORIENTED_EDGE('',*,*,#435,.T.);
#463=EDGE_LOOP('',(#454,#460,#461,#462));
#464=FACE_OUTER_BOUND('',#463,.T.);
#465=ADVANCED_FACE('',(#464),#446,.T.);
#466=CARTESIAN_POINT('',(18.899999999999999,-11.0,0.0));
#467=DIRECTION('',(0.0,-1.0,0.0));
#468=DIRECTION('',(0.0,0.0,-1.0));
#469=AXIS2_PLACEMENT_3D('',#466,#467,#468);
#470=PLANE('',#469);
#471=CARTESIAN_POINT('',(8.100000000000001,-11.0,-4.5563491861));
#472=VERTEX_POINT('',#471);
#473=CARTESIAN_POINT('',(8.100000000000001,-11.0,4.5563491861));
#474=DIRECTION('',(0.0,0.0,-1.0));
#475=VECTOR('',#474,9.112698372200001);
#476=LINE('',#473,#475);
#477=EDGE_CURVE('',#448,#472,#476,.T.);
#478=ORIENTED_EDGE('',*,*,#477,.T.);
#479=CARTESIAN_POINT('',(18.899999999999999,-11.0,-4.5563491861));
#480=DIRECTION('',(-1.0,0.0,0.0));
#481=VECTOR('',#480,10.799999999999999);
#482=LINE('',#479,#481);
#483=EDGE_CURVE('',#320,#472,#482,.T.);
#484=ORIENTED_EDGE('',*,*,#483,.F.);
#485=ORIENTED_EDGE('',*,*,#325,.T.);
#486=ORIENTED_EDGE('',*,*,#459,.T.);
#487=EDGE_LOOP('',(#478,#484,#485,#486));
#488=FACE_OUTER_BOUND('',#487,.T.);
#489=ADVANCED_FACE('',(#488),#470,.T.);
#490=CARTESIAN_POINT('',(18.899999999999999,-7.77817459305,-7.77817459305));
#491=DIRECTION('',(0.0,-0.707106781186548,-0.707106781186548));
#492=DIRECTION('',(-1.0,0.0,0.0));
#493=AXIS2_PLACEMENT_3D('',#490,#491,#492);
#494=PLANE('',#493);
#495=CARTESIAN_POINT('',(8.100000000000001,-4.5563491861,-11.0));
#496=VERTEX_POINT('',#495);
#497=CARTESIAN_POINT('',(8.100000000000001,-10.999999999999998,-4.556349186099999));
#498=DIRECTION('',(0.0,0.707106781186548,-0.707106781186548));
#499=VECTOR('',#498,9.112698372213812);
#500=LINE('',#497,#499);
#501=EDGE_CURVE('',#472,#496,#500,.T.);
#502=ORIENTED_EDGE('',*,*,#501,.T.);
#503=CARTESIAN_POINT('',(18.899999999999999,-4.5563491861,-11.0));
#504=DIRECTION('',(-1.0,0.0,0.0));
#505=VECTOR('',#504,10.799999999999999);
#506=LINE('',#503,#505);
#507=EDGE_CURVE('',#272,#496,#506,.T.);
#508=ORIENTED_EDGE('',*,*,#507,.F.);
#509=ORIENTED_EDGE('',*,*,#331,.T.);
#510=ORIENTED_EDGE('',*,*,#483,.T.);
#511=EDGE_LOOP('',(#502,#508,#509,#510));
#512=FACE_OUTER_BOUND('',#511,.T.);
#513=ADVANCED_FACE('',(#512),#494,.T.);
#514=CARTESIAN_POINT('',(18.899999999999999,0.0,-11.0));
#515=DIRECTION('',(0.0,0.0,-1.0));
#516=DIRECTION('',(-1.0,0.0,0.0));
#517=AXIS2_PLACEMENT_3D('',#514,#515,#516);
#518=PLANE('',#517);
#519=CARTESIAN_POINT('',(8.100000000000001,-4.5563491861,-11.0));
#520=DIRECTION('',(0.0,1.0,0.0));
#521=VECTOR('',#520,9.112698372200001);
#522=LINE('',#519,#521);
#523=EDGE_CURVE('',#496,#345,#522,.T.);
#524=ORIENTED_EDGE('',*,*,#523,.T.);
#525=ORIENTED_EDGE('',*,*,#365,.F.);
#526=ORIENTED_EDGE('',*,*,#277,.T.);
#527=ORIENTED_EDGE('',*,*,#507,.T.);
#528=EDGE_LOOP('',(#524,#525,#526,#527));
#529=FACE_OUTER_BOUND('',#528,.T.);
#530=ADVANCED_FACE('',(#529),#518,.T.);
#531=CARTESIAN_POINT('',(8.100000000000001,-1.110223E-016,0.0));
#532=DIRECTION('',(-1.0,0.0,0.0));
#533=DIRECTION('',(0.0,0.0,1.0));
#534=AXIS2_PLACEMENT_3D('',#531,#532,#533);
#535=PLANE('',#534);
#536=ORIENTED_EDGE('',*,*,#352,.F.);
#537=ORIENTED_EDGE('',*,*,#523,.F.);
#538=ORIENTED_EDGE('',*,*,#501,.F.);
#539=ORIENTED_EDGE('',*,*,#477,.F.);
#540=ORIENTED_EDGE('',*,*,#453,.F.);
#541=ORIENTED_EDGE('',*,*,#429,.F.);
#542=ORIENTED_EDGE('',*,*,#405,.F.);
#543=ORIENTED_EDGE('',*,*,#381,.F.);
#544=EDGE_LOOP('',(#536,#537,#538,#539,#540,#541,#542,#543));
#545=FACE_OUTER_BOUND('',#544,.T.);
#546=ORIENTED_EDGE('',*,*,#108,.T.);
#547=EDGE_LOOP('',(#546));
#548=FACE_BOUND('',#547,.T.);
#549=ADVANCED_FACE('',(#545,#548),#535,.T.);
#550=CARTESIAN_POINT('',(27.0,0.0,0.0));
#551=DIRECTION('',(1.0,0.0,0.0));
#552=DIRECTION('',(0.0,0.0,-1.0));
#553=AXIS2_PLACEMENT_3D('',#550,#551,#552);
#554=PLANE('',#553);
#555=ORIENTED_EDGE('',*,*,#91,.T.);
#556=EDGE_LOOP('',(#555));
#557=FACE_OUTER_BOUND('',#556,.T.);
#558=ORIENTED_EDGE('',*,*,#220,.T.);
#559=EDGE_LOOP('',(#558));
#560=FACE_BOUND('',#559,.T.);
#561=ADVANCED_FACE('',(#557,#560),#554,.T.);
#562=CLOSED_SHELL('',(#95,#123,#151,#179,#207,#227,#239,#251,#263,#338,#369,#393,#417,#441,#465,#489,#513,#530,#549,#561));
#563=MANIFOLD_SOLID_BREP('72186',#562);
#564=COLOUR_RGB('',0.250980406999588,0.290196090936661,0.329411774873734);
#565=FILL_AREA_STYLE_COLOUR('',#564);
#566=FILL_AREA_STYLE('',(#565));
#567=SURFACE_STYLE_FILL_AREA(#566);
#568=SURFACE_SIDE_STYLE('',(#567));
#569=SURFACE_STYLE_USAGE(.BOTH.,#568);
#570=PRESENTATION_STYLE_ASSIGNMENT((#569));
#571=STYLED_ITEM('',(#570,#588),#563);
#572=COLOUR_RGB('',1.0,1.0,0.501960813999176);
#573=FILL_AREA_STYLE_COLOUR('',#572);
#574=FILL_AREA_STYLE('',(#573));
#575=SURFACE_STYLE_FILL_AREA(#574);
#576=SURFACE_SIDE_STYLE('',(#575));
#577=SURFACE_STYLE_USAGE(.BOTH.,#576);
#578=PRESENTATION_STYLE_ASSIGNMENT((#577));
#579=OVER_RIDING_STYLED_ITEM('',(#578),#207,#571);
#580=OVER_RIDING_STYLED_ITEM('',(#578),#239,#571);
#581=MECHANICAL_DESIGN_GEOMETRIC_PRESENTATION_REPRESENTATION('',(#571,#579,#580),#67);
#582=COLOUR_RGB('Standard',0.752941012382507,0.752941012382507,0.752941012382507);
#583=FILL_AREA_STYLE_COLOUR('Standard',#582);
#584=FILL_AREA_STYLE('Standard',(#583));
#585=SURFACE_STYLE_FILL_AREA(#584);
#586=SURFACE_SIDE_STYLE('Standard',(#585));
#587=SURFACE_STYLE_USAGE(.BOTH.,#586);
#588=PRESENTATION_STYLE_ASSIGNMENT((#587));
#589=ADVANCED_BREP_SHAPE_REPRESENTATION('ABSR',(#563),#36);
#590=SHAPE_REPRESENTATION_RELATIONSHIP('SRR','None',#589,#41);
ENDSEC;
END-ISO-10303-21;
