ISO-10303-21;
HEADER;
FILE_DESCRIPTION(('STEP AP214'),'1');
FILE_NAME('cctmp_EDE35271-3607-4C18-9F3B-0116C1414BE0_2022_02_21_15_21_17_0142..stp','2022-02-21T14:21:17',('Praher Valves GmbH'),('CADClick - www.CADClick.com'),'Spatial InterOp 3D',' ','unknown authorization');
FILE_SCHEMA(('AUTOMOTIVE_DESIGN'));
ENDSEC;
DATA;
#1=MECHANICAL_DESIGN_GEOMETRIC_PRESENTATION_REPRESENTATION(' ',(#10,#11,#12,#13,#14,#15,#16,#17,#18,#19,#20,#21,#22,#23,#24,#25,#26,#27,#28),#6);
#2=PRODUCT_DEFINITION_CONTEXT('',#29,'design');
#3=APPLICATION_PROTOCOL_DEFINITION('INTERNATIONAL STANDARD','automotive_design',1994,#29);
#4=PRODUCT_CATEGORY_RELATIONSHIP('NONE','NONE',#30,#31);
#5=SHAPE_DEFINITION_REPRESENTATION(#32,#33);
#6= (GEOMETRIC_REPRESENTATION_CONTEXT(3)GLOBAL_UNCERTAINTY_ASSIGNED_CONTEXT((#36))GLOBAL_UNIT_ASSIGNED_CONTEXT((#38,#39,#40))REPRESENTATION_CONTEXT('NONE','WORKSPACE'));
#10=STYLED_ITEM('',(#42),#43);
#11=STYLED_ITEM('',(#44),#45);
#12=STYLED_ITEM('',(#46),#47);
#13=STYLED_ITEM('',(#48),#49);
#14=STYLED_ITEM('',(#50),#51);
#15=STYLED_ITEM('',(#52),#53);
#16=STYLED_ITEM('',(#54),#55);
#17=STYLED_ITEM('',(#56),#57);
#18=STYLED_ITEM('',(#58),#59);
#19=STYLED_ITEM('',(#60),#61);
#20=STYLED_ITEM('',(#62),#63);
#21=STYLED_ITEM('',(#64),#65);
#22=STYLED_ITEM('',(#66),#67);
#23=STYLED_ITEM('',(#68),#69);
#24=STYLED_ITEM('',(#70),#71);
#25=STYLED_ITEM('',(#72),#73);
#26=STYLED_ITEM('',(#74),#75);
#27=STYLED_ITEM('',(#76),#77);
#28=STYLED_ITEM('',(#78),#79);
#29=APPLICATION_CONTEXT(' ');
#30=PRODUCT_CATEGORY('part','NONE');
#31=PRODUCT_RELATED_PRODUCT_CATEGORY('detail',' ',(#80));
#32=PRODUCT_DEFINITION_SHAPE('NONE','NONE',#81);
#33=ADVANCED_BREP_SHAPE_REPRESENTATION('71280',(#79,#82),#6);
#36=UNCERTAINTY_MEASURE_WITH_UNIT(LENGTH_MEASURE(1.0E-006),#38,'','');
#38= (CONVERSION_BASED_UNIT('MILLIMETRE',#85)LENGTH_UNIT()NAMED_UNIT(#88));
#39= (NAMED_UNIT(#90)PLANE_ANGLE_UNIT()SI_UNIT($,.RADIAN.));
#40= (NAMED_UNIT(#90)SOLID_ANGLE_UNIT()SI_UNIT($,.STERADIAN.));
#42=PRESENTATION_STYLE_ASSIGNMENT((#96));
#43=ADVANCED_FACE('',(#97),#98,.T.);
#44=PRESENTATION_STYLE_ASSIGNMENT((#99));
#45=ADVANCED_FACE('',(#100),#101,.F.);
#46=PRESENTATION_STYLE_ASSIGNMENT((#102));
#47=ADVANCED_FACE('',(#103),#104,.F.);
#48=PRESENTATION_STYLE_ASSIGNMENT((#105));
#49=ADVANCED_FACE('',(#106,#107),#108,.F.);
#50=PRESENTATION_STYLE_ASSIGNMENT((#109));
#51=ADVANCED_FACE('',(#110),#111,.F.);
#52=PRESENTATION_STYLE_ASSIGNMENT((#112));
#53=ADVANCED_FACE('',(#113),#114,.F.);
#54=PRESENTATION_STYLE_ASSIGNMENT((#115));
#55=ADVANCED_FACE('',(#116,#117),#118,.F.);
#56=PRESENTATION_STYLE_ASSIGNMENT((#119));
#57=ADVANCED_FACE('',(#120),#121,.T.);
#58=PRESENTATION_STYLE_ASSIGNMENT((#122));
#59=ADVANCED_FACE('',(#123),#124,.T.);
#60=PRESENTATION_STYLE_ASSIGNMENT((#125));
#61=ADVANCED_FACE('',(#126),#127,.T.);
#62=PRESENTATION_STYLE_ASSIGNMENT((#128));
#63=ADVANCED_FACE('',(#129),#130,.T.);
#64=PRESENTATION_STYLE_ASSIGNMENT((#131));
#65=ADVANCED_FACE('',(#132),#133,.T.);
#66=PRESENTATION_STYLE_ASSIGNMENT((#134));
#67=ADVANCED_FACE('',(#135),#136,.T.);
#68=PRESENTATION_STYLE_ASSIGNMENT((#137));
#69=ADVANCED_FACE('',(#138),#139,.T.);
#70=PRESENTATION_STYLE_ASSIGNMENT((#140));
#71=ADVANCED_FACE('',(#141),#142,.T.);
#72=PRESENTATION_STYLE_ASSIGNMENT((#143));
#73=ADVANCED_FACE('',(#144,#145),#146,.T.);
#74=PRESENTATION_STYLE_ASSIGNMENT((#147));
#75=ADVANCED_FACE('',(#148),#149,.T.);
#76=PRESENTATION_STYLE_ASSIGNMENT((#150));
#77=ADVANCED_FACE('',(#151,#152),#153,.T.);
#78=PRESENTATION_STYLE_ASSIGNMENT((#154));
#79=MANIFOLD_SOLID_BREP('71280',#155);
#80=PRODUCT('71280','','PART--DESC',(#156));
#81=PRODUCT_DEFINITION('','NONE',#157,#2);
#82=AXIS2_PLACEMENT_3D('',#158,#159,#160);
#85=LENGTH_MEASURE_WITH_UNIT(LENGTH_MEASURE(1.0),#161);
#88=DIMENSIONAL_EXPONENTS(1.0,0.0,0.0,0.0,0.0,0.0,0.0);
#90=DIMENSIONAL_EXPONENTS(0.0,0.0,0.0,0.0,0.0,0.0,0.0);
#96=SURFACE_STYLE_USAGE(.BOTH.,#162);
#97=FACE_OUTER_BOUND('',#163,.T.);
#98=CYLINDRICAL_SURFACE('',#164,55.0);
#99=SURFACE_STYLE_USAGE(.BOTH.,#165);
#100=FACE_OUTER_BOUND('',#166,.T.);
#101=CYLINDRICAL_SURFACE('',#167,34.0);
#102=SURFACE_STYLE_USAGE(.BOTH.,#168);
#103=FACE_OUTER_BOUND('',#169,.T.);
#104=CYLINDRICAL_SURFACE('',#170,42.465);
#105=SURFACE_STYLE_USAGE(.BOTH.,#171);
#106=FACE_BOUND('',#172,.T.);
#107=FACE_OUTER_BOUND('',#173,.T.);
#108=PLANE('',#174);
#109=SURFACE_STYLE_USAGE(.BOTH.,#175);
#110=FACE_OUTER_BOUND('',#176,.T.);
#111=CYLINDRICAL_SURFACE('',#177,42.465);
#112=SURFACE_STYLE_USAGE(.BOTH.,#178);
#113=FACE_OUTER_BOUND('',#179,.T.);
#114=CYLINDRICAL_SURFACE('',#180,34.0);
#115=SURFACE_STYLE_USAGE(.BOTH.,#181);
#116=FACE_OUTER_BOUND('',#182,.T.);
#117=FACE_BOUND('',#183,.T.);
#118=PLANE('',#184);
#119=SURFACE_STYLE_USAGE(.BOTH.,#185);
#120=FACE_OUTER_BOUND('',#186,.T.);
#121=PLANE('',#187);
#122=SURFACE_STYLE_USAGE(.BOTH.,#188);
#123=FACE_OUTER_BOUND('',#189,.T.);
#124=PLANE('',#190);
#125=SURFACE_STYLE_USAGE(.BOTH.,#191);
#126=FACE_OUTER_BOUND('',#192,.T.);
#127=PLANE('',#193);
#128=SURFACE_STYLE_USAGE(.BOTH.,#194);
#129=FACE_OUTER_BOUND('',#195,.T.);
#130=PLANE('',#196);
#131=SURFACE_STYLE_USAGE(.BOTH.,#197);
#132=FACE_OUTER_BOUND('',#198,.T.);
#133=PLANE('',#199);
#134=SURFACE_STYLE_USAGE(.BOTH.,#200);
#135=FACE_OUTER_BOUND('',#201,.T.);
#136=PLANE('',#202);
#137=SURFACE_STYLE_USAGE(.BOTH.,#203);
#138=FACE_OUTER_BOUND('',#204,.T.);
#139=PLANE('',#205);
#140=SURFACE_STYLE_USAGE(.BOTH.,#206);
#141=FACE_OUTER_BOUND('',#207,.T.);
#142=PLANE('',#208);
#143=SURFACE_STYLE_USAGE(.BOTH.,#209);
#144=FACE_BOUND('',#210,.T.);
#145=FACE_OUTER_BOUND('',#211,.T.);
#146=PLANE('',#212);
#147=SURFACE_STYLE_USAGE(.BOTH.,#213);
#148=FACE_OUTER_BOUND('',#214,.T.);
#149=CYLINDRICAL_SURFACE('',#215,55.0);
#150=SURFACE_STYLE_USAGE(.BOTH.,#216);
#151=FACE_BOUND('',#217,.T.);
#152=FACE_OUTER_BOUND('',#218,.T.);
#153=PLANE('',#219);
#154=SURFACE_STYLE_USAGE(.BOTH.,#220);
#155=CLOSED_SHELL('',(#43,#45,#47,#49,#51,#53,#55,#57,#59,#61,#63,#65,#67,#69,#71,#73,#75,#77));
#156=PRODUCT_CONTEXT('',#29,'mechanical');
#157=PRODUCT_DEFINITION_FORMATION_WITH_SPECIFIED_SOURCE(' ','NONE',#80,.NOT_KNOWN.);
#158=CARTESIAN_POINT('',(0.0,0.0,0.0));
#159=DIRECTION('',(0.0,0.0,1.0));
#160=DIRECTION('',(1.0,0.0,0.0));
#161= (NAMED_UNIT(#88)LENGTH_UNIT()SI_UNIT(.MILLI.,.METRE.));
#162=SURFACE_SIDE_STYLE('',(#222));
#163=EDGE_LOOP('',(#223,#224,#225,#226));
#164=AXIS2_PLACEMENT_3D('',#227,#228,#229);
#165=SURFACE_SIDE_STYLE('',(#230));
#166=EDGE_LOOP('',(#231,#232,#233,#234));
#167=AXIS2_PLACEMENT_3D('',#235,#236,#237);
#168=SURFACE_SIDE_STYLE('',(#238));
#169=EDGE_LOOP('',(#239,#240,#241,#242));
#170=AXIS2_PLACEMENT_3D('',#243,#244,#245);
#171=SURFACE_SIDE_STYLE('',(#246));
#172=EDGE_LOOP('',(#247,#248));
#173=EDGE_LOOP('',(#249,#250));
#174=AXIS2_PLACEMENT_3D('',#251,#252,#253);
#175=SURFACE_SIDE_STYLE('',(#254));
#176=EDGE_LOOP('',(#255,#256,#257,#258));
#177=AXIS2_PLACEMENT_3D('',#259,#260,#261);
#178=SURFACE_SIDE_STYLE('',(#262));
#179=EDGE_LOOP('',(#263,#264,#265,#266));
#180=AXIS2_PLACEMENT_3D('',#267,#268,#269);
#181=SURFACE_SIDE_STYLE('',(#270));
#182=EDGE_LOOP('',(#271,#272,#273,#274,#275,#276,#277,#278));
#183=EDGE_LOOP('',(#279,#280));
#184=AXIS2_PLACEMENT_3D('',#281,#282,#283);
#185=SURFACE_SIDE_STYLE('',(#284));
#186=EDGE_LOOP('',(#285,#286,#287,#288));
#187=AXIS2_PLACEMENT_3D('',#289,#290,#291);
#188=SURFACE_SIDE_STYLE('',(#292));
#189=EDGE_LOOP('',(#293,#294,#295,#296));
#190=AXIS2_PLACEMENT_3D('',#297,#298,#299);
#191=SURFACE_SIDE_STYLE('',(#300));
#192=EDGE_LOOP('',(#301,#302,#303,#304));
#193=AXIS2_PLACEMENT_3D('',#305,#306,#307);
#194=SURFACE_SIDE_STYLE('',(#308));
#195=EDGE_LOOP('',(#309,#310,#311,#312));
#196=AXIS2_PLACEMENT_3D('',#313,#314,#315);
#197=SURFACE_SIDE_STYLE('',(#316));
#198=EDGE_LOOP('',(#317,#318,#319,#320));
#199=AXIS2_PLACEMENT_3D('',#321,#322,#323);
#200=SURFACE_SIDE_STYLE('',(#324));
#201=EDGE_LOOP('',(#325,#326,#327,#328));
#202=AXIS2_PLACEMENT_3D('',#329,#330,#331);
#203=SURFACE_SIDE_STYLE('',(#332));
#204=EDGE_LOOP('',(#333,#334,#335,#336));
#205=AXIS2_PLACEMENT_3D('',#337,#338,#339);
#206=SURFACE_SIDE_STYLE('',(#340));
#207=EDGE_LOOP('',(#341,#342,#343,#344));
#208=AXIS2_PLACEMENT_3D('',#345,#346,#347);
#209=SURFACE_SIDE_STYLE('',(#348));
#210=EDGE_LOOP('',(#349,#350));
#211=EDGE_LOOP('',(#351,#352,#353,#354,#355,#356,#357,#358));
#212=AXIS2_PLACEMENT_3D('',#359,#360,#361);
#213=SURFACE_SIDE_STYLE('',(#362));
#214=EDGE_LOOP('',(#363,#364,#365,#366));
#215=AXIS2_PLACEMENT_3D('',#367,#368,#369);
#216=SURFACE_SIDE_STYLE('',(#370));
#217=EDGE_LOOP('',(#371,#372));
#218=EDGE_LOOP('',(#373,#374));
#219=AXIS2_PLACEMENT_3D('',#375,#376,#377);
#220=SURFACE_SIDE_STYLE('',(#378));
#222=SURFACE_STYLE_FILL_AREA(#379);
#223=ORIENTED_EDGE('',*,*,#380,.F.);
#224=ORIENTED_EDGE('',*,*,#381,.F.);
#225=ORIENTED_EDGE('',*,*,#382,.F.);
#226=ORIENTED_EDGE('',*,*,#383,.F.);
#227=CARTESIAN_POINT('',(0.0,0.0,30.5));
#228=DIRECTION('',(0.0,0.0,1.0));
#229=DIRECTION('',(1.0,0.0,0.0));
#230=SURFACE_STYLE_FILL_AREA(#384);
#231=ORIENTED_EDGE('',*,*,#385,.F.);
#232=ORIENTED_EDGE('',*,*,#386,.T.);
#233=ORIENTED_EDGE('',*,*,#387,.F.);
#234=ORIENTED_EDGE('',*,*,#388,.F.);
#235=CARTESIAN_POINT('',(0.0,0.0,41.5));
#236=DIRECTION('',(0.0,0.0,1.0));
#237=DIRECTION('',(1.0,0.0,0.0));
#238=SURFACE_STYLE_FILL_AREA(#389);
#239=ORIENTED_EDGE('',*,*,#390,.F.);
#240=ORIENTED_EDGE('',*,*,#391,.F.);
#241=ORIENTED_EDGE('',*,*,#392,.F.);
#242=ORIENTED_EDGE('',*,*,#393,.F.);
#243=CARTESIAN_POINT('',(0.0,0.0,47.0));
#244=DIRECTION('',(0.0,0.0,1.0));
#245=DIRECTION('',(1.0,0.0,0.0));
#246=SURFACE_STYLE_FILL_AREA(#394);
#247=ORIENTED_EDGE('',*,*,#395,.F.);
#248=ORIENTED_EDGE('',*,*,#386,.F.);
#249=ORIENTED_EDGE('',*,*,#393,.T.);
#250=ORIENTED_EDGE('',*,*,#396,.T.);
#251=CARTESIAN_POINT('',(21.2325,0.0,11.0));
#252=DIRECTION('',(0.0,0.0,-1.0));
#253=DIRECTION('',(-1.0,0.0,0.0));
#254=SURFACE_STYLE_FILL_AREA(#397);
#255=ORIENTED_EDGE('',*,*,#390,.T.);
#256=ORIENTED_EDGE('',*,*,#396,.F.);
#257=ORIENTED_EDGE('',*,*,#392,.T.);
#258=ORIENTED_EDGE('',*,*,#398,.F.);
#259=CARTESIAN_POINT('',(0.0,0.0,47.0));
#260=DIRECTION('',(0.0,0.0,1.0));
#261=DIRECTION('',(1.0,0.0,0.0));
#262=SURFACE_STYLE_FILL_AREA(#399);
#263=ORIENTED_EDGE('',*,*,#385,.T.);
#264=ORIENTED_EDGE('',*,*,#400,.F.);
#265=ORIENTED_EDGE('',*,*,#387,.T.);
#266=ORIENTED_EDGE('',*,*,#395,.T.);
#267=CARTESIAN_POINT('',(0.0,0.0,41.5));
#268=DIRECTION('',(0.0,0.0,1.0));
#269=DIRECTION('',(1.0,0.0,0.0));
#270=SURFACE_STYLE_FILL_AREA(#401);
#271=ORIENTED_EDGE('',*,*,#402,.F.);
#272=ORIENTED_EDGE('',*,*,#403,.F.);
#273=ORIENTED_EDGE('',*,*,#404,.F.);
#274=ORIENTED_EDGE('',*,*,#405,.F.);
#275=ORIENTED_EDGE('',*,*,#406,.F.);
#276=ORIENTED_EDGE('',*,*,#407,.F.);
#277=ORIENTED_EDGE('',*,*,#408,.F.);
#278=ORIENTED_EDGE('',*,*,#409,.F.);
#279=ORIENTED_EDGE('',*,*,#383,.T.);
#280=ORIENTED_EDGE('',*,*,#410,.T.);
#281=CARTESIAN_POINT('',(-8.88178419700125E-016,8.88178419700125E-016,61.0));
#282=DIRECTION('',(0.0,0.0,1.0));
#283=DIRECTION('',(1.0,0.0,0.0));
#284=SURFACE_STYLE_FILL_AREA(#411);
#285=ORIENTED_EDGE('',*,*,#412,.T.);
#286=ORIENTED_EDGE('',*,*,#413,.F.);
#287=ORIENTED_EDGE('',*,*,#403,.T.);
#288=ORIENTED_EDGE('',*,*,#414,.T.);
#289=CARTESIAN_POINT('',(40.65863991825,-40.65863991825,61.0));
#290=DIRECTION('',(0.707106781186547,-0.707106781186547,0.0));
#291=DIRECTION('',(0.707106781186548,0.707106781186548,0.0));
#292=SURFACE_STYLE_FILL_AREA(#415);
#293=ORIENTED_EDGE('',*,*,#416,.T.);
#294=ORIENTED_EDGE('',*,*,#417,.F.);
#295=ORIENTED_EDGE('',*,*,#404,.T.);
#296=ORIENTED_EDGE('',*,*,#413,.T.);
#297=CARTESIAN_POINT('',(0.0,-57.5,61.0));
#298=DIRECTION('',(0.0,-1.0,0.0));
#299=DIRECTION('',(1.0,0.0,0.0));
#300=SURFACE_STYLE_FILL_AREA(#418);
#301=ORIENTED_EDGE('',*,*,#419,.T.);
#302=ORIENTED_EDGE('',*,*,#420,.F.);
#303=ORIENTED_EDGE('',*,*,#405,.T.);
#304=ORIENTED_EDGE('',*,*,#417,.T.);
#305=CARTESIAN_POINT('',(-40.65863991825,-40.65863991825,61.0));
#306=DIRECTION('',(-0.707106781186547,-0.707106781186547,0.0));
#307=DIRECTION('',(0.707106781186548,-0.707106781186548,0.0));
#308=SURFACE_STYLE_FILL_AREA(#421);
#309=ORIENTED_EDGE('',*,*,#422,.T.);
#310=ORIENTED_EDGE('',*,*,#423,.F.);
#311=ORIENTED_EDGE('',*,*,#406,.T.);
#312=ORIENTED_EDGE('',*,*,#420,.T.);
#313=CARTESIAN_POINT('',(-57.5,0.0,61.0));
#314=DIRECTION('',(-1.0,0.0,0.0));
#315=DIRECTION('',(0.0,-1.0,0.0));
#316=SURFACE_STYLE_FILL_AREA(#424);
#317=ORIENTED_EDGE('',*,*,#425,.T.);
#318=ORIENTED_EDGE('',*,*,#426,.F.);
#319=ORIENTED_EDGE('',*,*,#407,.T.);
#320=ORIENTED_EDGE('',*,*,#423,.T.);
#321=CARTESIAN_POINT('',(-40.65863991825,40.65863991825,61.0));
#322=DIRECTION('',(-0.707106781186547,0.707106781186547,0.0));
#323=DIRECTION('',(-0.707106781186548,-0.707106781186548,0.0));
#324=SURFACE_STYLE_FILL_AREA(#427);
#325=ORIENTED_EDGE('',*,*,#428,.T.);
#326=ORIENTED_EDGE('',*,*,#429,.F.);
#327=ORIENTED_EDGE('',*,*,#408,.T.);
#328=ORIENTED_EDGE('',*,*,#426,.T.);
#329=CARTESIAN_POINT('',(0.0,57.5,61.0));
#330=DIRECTION('',(0.0,1.0,0.0));
#331=DIRECTION('',(-1.0,0.0,0.0));
#332=SURFACE_STYLE_FILL_AREA(#430);
#333=ORIENTED_EDGE('',*,*,#431,.T.);
#334=ORIENTED_EDGE('',*,*,#432,.F.);
#335=ORIENTED_EDGE('',*,*,#409,.T.);
#336=ORIENTED_EDGE('',*,*,#429,.T.);
#337=CARTESIAN_POINT('',(40.65863991825,40.65863991825,61.0));
#338=DIRECTION('',(0.707106781186547,0.707106781186547,0.0));
#339=DIRECTION('',(-0.707106781186548,0.707106781186548,0.0));
#340=SURFACE_STYLE_FILL_AREA(#433);
#341=ORIENTED_EDGE('',*,*,#434,.T.);
#342=ORIENTED_EDGE('',*,*,#414,.F.);
#343=ORIENTED_EDGE('',*,*,#402,.T.);
#344=ORIENTED_EDGE('',*,*,#432,.T.);
#345=CARTESIAN_POINT('',(57.5,0.0,61.0));
#346=DIRECTION('',(1.0,0.0,0.0));
#347=DIRECTION('',(0.0,1.0,0.0));
#348=SURFACE_STYLE_FILL_AREA(#435);
#349=ORIENTED_EDGE('',*,*,#398,.T.);
#350=ORIENTED_EDGE('',*,*,#391,.T.);
#351=ORIENTED_EDGE('',*,*,#412,.F.);
#352=ORIENTED_EDGE('',*,*,#434,.F.);
#353=ORIENTED_EDGE('',*,*,#431,.F.);
#354=ORIENTED_EDGE('',*,*,#428,.F.);
#355=ORIENTED_EDGE('',*,*,#425,.F.);
#356=ORIENTED_EDGE('',*,*,#422,.F.);
#357=ORIENTED_EDGE('',*,*,#419,.F.);
#358=ORIENTED_EDGE('',*,*,#416,.F.);
#359=CARTESIAN_POINT('',(8.88178419700125E-016,8.88178419700125E-016,83.0));
#360=DIRECTION('',(0.0,0.0,1.0));
#361=DIRECTION('',(1.0,0.0,0.0));
#362=SURFACE_STYLE_FILL_AREA(#436);
#363=ORIENTED_EDGE('',*,*,#380,.T.);
#364=ORIENTED_EDGE('',*,*,#410,.F.);
#365=ORIENTED_EDGE('',*,*,#382,.T.);
#366=ORIENTED_EDGE('',*,*,#437,.F.);
#367=CARTESIAN_POINT('',(0.0,0.0,30.5));
#368=DIRECTION('',(0.0,0.0,1.0));
#369=DIRECTION('',(1.0,0.0,0.0));
#370=SURFACE_STYLE_FILL_AREA(#438);
#371=ORIENTED_EDGE('',*,*,#388,.T.);
#372=ORIENTED_EDGE('',*,*,#400,.T.);
#373=ORIENTED_EDGE('',*,*,#437,.T.);
#374=ORIENTED_EDGE('',*,*,#381,.T.);
#375=CARTESIAN_POINT('',(0.0,0.0,0.0));
#376=DIRECTION('',(0.0,0.0,-1.0));
#377=DIRECTION('',(-1.0,0.0,0.0));
#378=SURFACE_STYLE_FILL_AREA(#439);
#379=FILL_AREA_STYLE('',(#440));
#380=EDGE_CURVE('',#441,#442,#443,.T.);
#381=EDGE_CURVE('',#444,#441,#445,.T.);
#382=EDGE_CURVE('',#446,#444,#447,.T.);
#383=EDGE_CURVE('',#442,#446,#448,.T.);
#384=FILL_AREA_STYLE('',(#449));
#385=EDGE_CURVE('',#450,#451,#452,.T.);
#386=EDGE_CURVE('',#450,#453,#454,.T.);
#387=EDGE_CURVE('',#455,#453,#456,.T.);
#388=EDGE_CURVE('',#451,#455,#457,.T.);
#389=FILL_AREA_STYLE('',(#458));
#390=EDGE_CURVE('',#459,#460,#461,.T.);
#391=EDGE_CURVE('',#462,#459,#463,.T.);
#392=EDGE_CURVE('',#464,#462,#465,.T.);
#393=EDGE_CURVE('',#460,#464,#466,.T.);
#394=FILL_AREA_STYLE('',(#467));
#395=EDGE_CURVE('',#453,#450,#468,.T.);
#396=EDGE_CURVE('',#464,#460,#469,.T.);
#397=FILL_AREA_STYLE('',(#470));
#398=EDGE_CURVE('',#459,#462,#471,.T.);
#399=FILL_AREA_STYLE('',(#472));
#400=EDGE_CURVE('',#455,#451,#473,.T.);
#401=FILL_AREA_STYLE('',(#474));
#402=EDGE_CURVE('',#475,#476,#477,.T.);
#403=EDGE_CURVE('',#478,#475,#479,.T.);
#404=EDGE_CURVE('',#480,#478,#481,.T.);
#405=EDGE_CURVE('',#482,#480,#483,.T.);
#406=EDGE_CURVE('',#484,#482,#485,.T.);
#407=EDGE_CURVE('',#486,#484,#487,.T.);
#408=EDGE_CURVE('',#488,#486,#489,.T.);
#409=EDGE_CURVE('',#476,#488,#490,.T.);
#410=EDGE_CURVE('',#446,#442,#491,.T.);
#411=FILL_AREA_STYLE('',(#492));
#412=EDGE_CURVE('',#493,#494,#495,.T.);
#413=EDGE_CURVE('',#478,#494,#496,.T.);
#414=EDGE_CURVE('',#475,#493,#497,.T.);
#415=FILL_AREA_STYLE('',(#498));
#416=EDGE_CURVE('',#494,#499,#500,.T.);
#417=EDGE_CURVE('',#480,#499,#501,.T.);
#418=FILL_AREA_STYLE('',(#502));
#419=EDGE_CURVE('',#499,#503,#504,.T.);
#420=EDGE_CURVE('',#482,#503,#505,.T.);
#421=FILL_AREA_STYLE('',(#506));
#422=EDGE_CURVE('',#503,#507,#508,.T.);
#423=EDGE_CURVE('',#484,#507,#509,.T.);
#424=FILL_AREA_STYLE('',(#510));
#425=EDGE_CURVE('',#507,#511,#512,.T.);
#426=EDGE_CURVE('',#486,#511,#513,.T.);
#427=FILL_AREA_STYLE('',(#514));
#428=EDGE_CURVE('',#511,#515,#516,.T.);
#429=EDGE_CURVE('',#488,#515,#517,.T.);
#430=FILL_AREA_STYLE('',(#518));
#431=EDGE_CURVE('',#515,#519,#520,.T.);
#432=EDGE_CURVE('',#476,#519,#521,.T.);
#433=FILL_AREA_STYLE('',(#522));
#434=EDGE_CURVE('',#519,#493,#523,.T.);
#435=FILL_AREA_STYLE('',(#524));
#436=FILL_AREA_STYLE('',(#525));
#437=EDGE_CURVE('',#441,#444,#526,.T.);
#438=FILL_AREA_STYLE('',(#527));
#439=FILL_AREA_STYLE('',(#528));
#440=FILL_AREA_STYLE_COLOUR('',#529);
#441=VERTEX_POINT('',#530);
#442=VERTEX_POINT('',#531);
#443=LINE('',#532,#533);
#444=VERTEX_POINT('',#534);
#445=CIRCLE('',#535,55.0);
#446=VERTEX_POINT('',#536);
#447=LINE('',#537,#538);
#448=CIRCLE('',#539,55.0);
#449=FILL_AREA_STYLE_COLOUR('',#540);
#450=VERTEX_POINT('',#541);
#451=VERTEX_POINT('',#542);
#452=LINE('',#543,#544);
#453=VERTEX_POINT('',#545);
#454=CIRCLE('',#546,34.0);
#455=VERTEX_POINT('',#547);
#456=LINE('',#548,#549);
#457=CIRCLE('',#550,34.0);
#458=FILL_AREA_STYLE_COLOUR('',#551);
#459=VERTEX_POINT('',#552);
#460=VERTEX_POINT('',#553);
#461=LINE('',#554,#555);
#462=VERTEX_POINT('',#556);
#463=CIRCLE('',#557,42.465);
#464=VERTEX_POINT('',#558);
#465=LINE('',#559,#560);
#466=CIRCLE('',#561,42.465);
#467=FILL_AREA_STYLE_COLOUR('',#562);
#468=CIRCLE('',#563,34.0);
#469=CIRCLE('',#564,42.465);
#470=FILL_AREA_STYLE_COLOUR('',#565);
#471=CIRCLE('',#566,42.465);
#472=FILL_AREA_STYLE_COLOUR('',#567);
#473=CIRCLE('',#568,34.0);
#474=FILL_AREA_STYLE_COLOUR('',#569);
#475=VERTEX_POINT('',#570);
#476=VERTEX_POINT('',#571);
#477=LINE('',#572,#573);
#478=VERTEX_POINT('',#574);
#479=LINE('',#575,#576);
#480=VERTEX_POINT('',#577);
#481=LINE('',#578,#579);
#482=VERTEX_POINT('',#580);
#483=LINE('',#581,#582);
#484=VERTEX_POINT('',#583);
#485=LINE('',#584,#585);
#486=VERTEX_POINT('',#586);
#487=LINE('',#587,#588);
#488=VERTEX_POINT('',#589);
#489=LINE('',#590,#591);
#490=LINE('',#592,#593);
#491=CIRCLE('',#594,55.0);
#492=FILL_AREA_STYLE_COLOUR('',#595);
#493=VERTEX_POINT('',#596);
#494=VERTEX_POINT('',#597);
#495=LINE('',#598,#599);
#496=LINE('',#600,#601);
#497=LINE('',#602,#603);
#498=FILL_AREA_STYLE_COLOUR('',#604);
#499=VERTEX_POINT('',#605);
#500=LINE('',#606,#607);
#501=LINE('',#608,#609);
#502=FILL_AREA_STYLE_COLOUR('',#610);
#503=VERTEX_POINT('',#611);
#504=LINE('',#612,#613);
#505=LINE('',#614,#615);
#506=FILL_AREA_STYLE_COLOUR('',#616);
#507=VERTEX_POINT('',#617);
#508=LINE('',#618,#619);
#509=LINE('',#620,#621);
#510=FILL_AREA_STYLE_COLOUR('',#622);
#511=VERTEX_POINT('',#623);
#512=LINE('',#624,#625);
#513=LINE('',#626,#627);
#514=FILL_AREA_STYLE_COLOUR('',#628);
#515=VERTEX_POINT('',#629);
#516=LINE('',#630,#631);
#517=LINE('',#632,#633);
#518=FILL_AREA_STYLE_COLOUR('',#634);
#519=VERTEX_POINT('',#635);
#520=LINE('',#636,#637);
#521=LINE('',#638,#639);
#522=FILL_AREA_STYLE_COLOUR('',#640);
#523=LINE('',#641,#642);
#524=FILL_AREA_STYLE_COLOUR('',#643);
#525=FILL_AREA_STYLE_COLOUR('',#644);
#526=CIRCLE('',#645,55.0);
#527=FILL_AREA_STYLE_COLOUR('',#646);
#528=FILL_AREA_STYLE_COLOUR('',#647);
#529=COLOUR_RGB('',0.250980406999588,0.290196090936661,0.329411774873734);
#530=CARTESIAN_POINT('',(55.0,0.0,0.0));
#531=CARTESIAN_POINT('',(55.0,0.0,61.0));
#532=CARTESIAN_POINT('',(55.0,-6.73555739531044E-015,30.5));
#533=VECTOR('',#648,1.0);
#534=CARTESIAN_POINT('',(-55.0,6.73555739531044E-015,0.0));
#535=AXIS2_PLACEMENT_3D('',#649,#650,#651);
#536=CARTESIAN_POINT('',(-55.0,6.73555739531044E-015,61.0));
#537=CARTESIAN_POINT('',(-55.0,6.73555739531044E-015,30.5));
#538=VECTOR('',#652,1.0);
#539=AXIS2_PLACEMENT_3D('',#653,#654,#655);
#540=COLOUR_RGB('',0.250980406999588,0.290196090936661,0.329411774873734);
#541=CARTESIAN_POINT('',(34.0,-4.163799117101E-015,11.0));
#542=CARTESIAN_POINT('',(34.0,0.0,0.0));
#543=CARTESIAN_POINT('',(34.0,-4.163799117101E-015,5.5));
#544=VECTOR('',#656,1.0);
#545=CARTESIAN_POINT('',(-34.0,-4.163799117101E-015,11.0));
#546=AXIS2_PLACEMENT_3D('',#657,#658,#659);
#547=CARTESIAN_POINT('',(-34.0,4.163799117101E-015,0.0));
#548=CARTESIAN_POINT('',(-34.0,4.163799117101E-015,5.5));
#549=VECTOR('',#660,1.0);
#550=AXIS2_PLACEMENT_3D('',#661,#662,#663);
#551=COLOUR_RGB('',1.0,1.0,0.501960813999176);
#552=CARTESIAN_POINT('',(42.465,0.0,83.0));
#553=CARTESIAN_POINT('',(42.465,0.0,11.0));
#554=CARTESIAN_POINT('',(42.465,-5.20046263257923E-015,47.0));
#555=VECTOR('',#664,1.0);
#556=CARTESIAN_POINT('',(-42.465,5.20046263257923E-015,83.0));
#557=AXIS2_PLACEMENT_3D('',#665,#666,#667);
#558=CARTESIAN_POINT('',(-42.465,5.20046263257923E-015,11.0));
#559=CARTESIAN_POINT('',(-42.465,5.20046263257923E-015,47.0));
#560=VECTOR('',#668,1.0);
#561=AXIS2_PLACEMENT_3D('',#669,#670,#671);
#562=COLOUR_RGB('',1.0,1.0,0.501960813999176);
#563=AXIS2_PLACEMENT_3D('',#672,#673,#674);
#564=AXIS2_PLACEMENT_3D('',#675,#676,#677);
#565=COLOUR_RGB('',1.0,1.0,0.501960813999176);
#566=AXIS2_PLACEMENT_3D('',#678,#679,#680);
#567=COLOUR_RGB('',0.250980406999588,0.290196090936661,0.329411774873734);
#568=AXIS2_PLACEMENT_3D('',#681,#682,#683);
#569=COLOUR_RGB('',0.250980406999588,0.290196090936661,0.329411774873734);
#570=CARTESIAN_POINT('',(57.5,-23.8172798365,61.0));
#571=CARTESIAN_POINT('',(57.5,23.8172798365,61.0));
#572=CARTESIAN_POINT('',(57.5,-23.8172798365,61.0));
#573=VECTOR('',#684,1.0);
#574=CARTESIAN_POINT('',(23.8172798365,-57.5,61.0));
#575=CARTESIAN_POINT('',(23.8172798365,-57.5,61.0));
#576=VECTOR('',#685,1.0);
#577=CARTESIAN_POINT('',(-23.8172798365,-57.5,61.0));
#578=CARTESIAN_POINT('',(-23.8172798365,-57.5,61.0));
#579=VECTOR('',#686,1.0);
#580=CARTESIAN_POINT('',(-57.5,-23.8172798365,61.0));
#581=CARTESIAN_POINT('',(-57.5,-23.8172798365,61.0));
#582=VECTOR('',#687,1.0);
#583=CARTESIAN_POINT('',(-57.5,23.8172798365,61.0));
#584=CARTESIAN_POINT('',(-57.5,23.8172798365,61.0));
#585=VECTOR('',#688,1.0);
#586=CARTESIAN_POINT('',(-23.8172798365,57.5,61.0));
#587=CARTESIAN_POINT('',(-23.8172798365,57.5,61.0));
#588=VECTOR('',#689,1.0);
#589=CARTESIAN_POINT('',(23.8172798365,57.5,61.0));
#590=CARTESIAN_POINT('',(23.8172798365,57.5,61.0));
#591=VECTOR('',#690,1.0);
#592=CARTESIAN_POINT('',(57.5,23.8172798365,61.0));
#593=VECTOR('',#691,1.0);
#594=AXIS2_PLACEMENT_3D('',#692,#693,#694);
#595=COLOUR_RGB('',0.250980406999588,0.290196090936661,0.329411774873734);
#596=CARTESIAN_POINT('',(57.5,-23.8172798365,83.0));
#597=CARTESIAN_POINT('',(23.8172798365,-57.5,83.0));
#598=CARTESIAN_POINT('',(23.8172798365,-57.5,83.0));
#599=VECTOR('',#695,1.0);
#600=CARTESIAN_POINT('',(23.8172798365,-57.5,61.0));
#601=VECTOR('',#696,1.0);
#602=CARTESIAN_POINT('',(57.5,-23.8172798365,61.0));
#603=VECTOR('',#697,1.0);
#604=COLOUR_RGB('',0.250980406999588,0.290196090936661,0.329411774873734);
#605=CARTESIAN_POINT('',(-23.8172798365,-57.5,83.0));
#606=CARTESIAN_POINT('',(-23.8172798365,-57.5,83.0));
#607=VECTOR('',#698,1.0);
#608=CARTESIAN_POINT('',(-23.8172798365,-57.5,61.0));
#609=VECTOR('',#699,1.0);
#610=COLOUR_RGB('',0.250980406999588,0.290196090936661,0.329411774873734);
#611=CARTESIAN_POINT('',(-57.5,-23.8172798365,83.0));
#612=CARTESIAN_POINT('',(-57.5,-23.8172798365,83.0));
#613=VECTOR('',#700,1.0);
#614=CARTESIAN_POINT('',(-57.5,-23.8172798365,61.0));
#615=VECTOR('',#701,1.0);
#616=COLOUR_RGB('',0.250980406999588,0.290196090936661,0.329411774873734);
#617=CARTESIAN_POINT('',(-57.5,23.8172798365,83.0));
#618=CARTESIAN_POINT('',(-57.5,23.8172798365,83.0));
#619=VECTOR('',#702,1.0);
#620=CARTESIAN_POINT('',(-57.5,23.8172798365,61.0));
#621=VECTOR('',#703,1.0);
#622=COLOUR_RGB('',0.250980406999588,0.290196090936661,0.329411774873734);
#623=CARTESIAN_POINT('',(-23.8172798365,57.5,83.0));
#624=CARTESIAN_POINT('',(-23.8172798365,57.5,83.0));
#625=VECTOR('',#704,1.0);
#626=CARTESIAN_POINT('',(-23.8172798365,57.5,61.0));
#627=VECTOR('',#705,1.0);
#628=COLOUR_RGB('',0.250980406999588,0.290196090936661,0.329411774873734);
#629=CARTESIAN_POINT('',(23.8172798365,57.5,83.0));
#630=CARTESIAN_POINT('',(23.8172798365,57.5,83.0));
#631=VECTOR('',#706,1.0);
#632=CARTESIAN_POINT('',(23.8172798365,57.5,61.0));
#633=VECTOR('',#707,1.0);
#634=COLOUR_RGB('',0.250980406999588,0.290196090936661,0.329411774873734);
#635=CARTESIAN_POINT('',(57.5,23.8172798365,83.0));
#636=CARTESIAN_POINT('',(57.5,23.8172798365,83.0));
#637=VECTOR('',#708,1.0);
#638=CARTESIAN_POINT('',(57.5,23.8172798365,61.0));
#639=VECTOR('',#709,1.0);
#640=COLOUR_RGB('',0.250980406999588,0.290196090936661,0.329411774873734);
#641=CARTESIAN_POINT('',(57.5,-23.8172798365,83.0));
#642=VECTOR('',#710,1.0);
#643=COLOUR_RGB('',0.250980406999588,0.290196090936661,0.329411774873734);
#644=COLOUR_RGB('',0.250980406999588,0.290196090936661,0.329411774873734);
#645=AXIS2_PLACEMENT_3D('',#711,#712,#713);
#646=COLOUR_RGB('',0.250980406999588,0.290196090936661,0.329411774873734);
#647=COLOUR_RGB('',0.250980406999588,0.290196090936661,0.329411774873734);
#648=DIRECTION('',(0.0,0.0,1.0));
#649=CARTESIAN_POINT('',(0.0,0.0,0.0));
#650=DIRECTION('',(0.0,0.0,-1.0));
#651=DIRECTION('',(1.0,0.0,0.0));
#652=DIRECTION('',(-0.0,-0.0,-1.0));
#653=CARTESIAN_POINT('',(0.0,0.0,61.0));
#654=DIRECTION('',(0.0,0.0,1.0));
#655=DIRECTION('',(1.0,0.0,0.0));
#656=DIRECTION('',(-0.0,0.0,-1.0));
#657=CARTESIAN_POINT('',(0.0,0.0,11.0));
#658=DIRECTION('',(0.0,-0.0,1.0));
#659=DIRECTION('',(1.0,0.0,0.0));
#660=DIRECTION('',(-0.0,0.0,1.0));
#661=CARTESIAN_POINT('',(0.0,0.0,0.0));
#662=DIRECTION('',(0.0,-0.0,1.0));
#663=DIRECTION('',(1.0,0.0,0.0));
#664=DIRECTION('',(-0.0,0.0,-1.0));
#665=CARTESIAN_POINT('',(0.0,0.0,83.0));
#666=DIRECTION('',(0.0,0.0,-1.0));
#667=DIRECTION('',(1.0,0.0,0.0));
#668=DIRECTION('',(-0.0,0.0,1.0));
#669=CARTESIAN_POINT('',(0.0,0.0,11.0));
#670=DIRECTION('',(0.0,0.0,1.0));
#671=DIRECTION('',(1.0,0.0,0.0));
#672=CARTESIAN_POINT('',(0.0,0.0,11.0));
#673=DIRECTION('',(0.0,-0.0,1.0));
#674=DIRECTION('',(1.0,0.0,0.0));
#675=CARTESIAN_POINT('',(0.0,0.0,11.0));
#676=DIRECTION('',(0.0,0.0,1.0));
#677=DIRECTION('',(1.0,0.0,0.0));
#678=CARTESIAN_POINT('',(0.0,0.0,83.0));
#679=DIRECTION('',(0.0,0.0,-1.0));
#680=DIRECTION('',(1.0,0.0,0.0));
#681=CARTESIAN_POINT('',(0.0,0.0,0.0));
#682=DIRECTION('',(0.0,-0.0,1.0));
#683=DIRECTION('',(1.0,0.0,0.0));
#684=DIRECTION('',(0.0,1.0,0.0));
#685=DIRECTION('',(0.707106781186548,0.707106781186548,0.0));
#686=DIRECTION('',(1.0,0.0,0.0));
#687=DIRECTION('',(0.707106781186548,-0.707106781186548,0.0));
#688=DIRECTION('',(0.0,-1.0,0.0));
#689=DIRECTION('',(-0.707106781186548,-0.707106781186548,0.0));
#690=DIRECTION('',(-1.0,0.0,0.0));
#691=DIRECTION('',(-0.707106781186548,0.707106781186548,0.0));
#692=CARTESIAN_POINT('',(0.0,0.0,61.0));
#693=DIRECTION('',(0.0,0.0,1.0));
#694=DIRECTION('',(1.0,0.0,0.0));
#695=DIRECTION('',(-0.707106781186548,-0.707106781186548,-0.0));
#696=DIRECTION('',(0.0,0.0,1.0));
#697=DIRECTION('',(0.0,0.0,1.0));
#698=DIRECTION('',(-1.0,-0.0,-0.0));
#699=DIRECTION('',(0.0,0.0,1.0));
#700=DIRECTION('',(-0.707106781186548,0.707106781186548,0.0));
#701=DIRECTION('',(0.0,0.0,1.0));
#702=DIRECTION('',(0.0,1.0,0.0));
#703=DIRECTION('',(0.0,0.0,1.0));
#704=DIRECTION('',(0.707106781186548,0.707106781186548,0.0));
#705=DIRECTION('',(0.0,0.0,1.0));
#706=DIRECTION('',(1.0,0.0,0.0));
#707=DIRECTION('',(0.0,0.0,1.0));
#708=DIRECTION('',(0.707106781186548,-0.707106781186548,0.0));
#709=DIRECTION('',(0.0,0.0,1.0));
#710=DIRECTION('',(-0.0,-1.0,-0.0));
#711=CARTESIAN_POINT('',(0.0,0.0,0.0));
#712=DIRECTION('',(0.0,0.0,-1.0));
#713=DIRECTION('',(1.0,0.0,0.0));
ENDSEC;
END-ISO-10303-21;
