ISO-10303-21;
HEADER;
FILE_DESCRIPTION( ( 'STEP AP214' ), '1' );
FILE_NAME( 'C:/Users/azilaghe/AppData/Local/Temp/psolqas_1104_14.stp', '2021-03-04T17:30:56', ( 'License CC BY-ND 4.0' ), ( 'CADENAS' ), ' ', 'PARTsolutions', ' ' );
FILE_SCHEMA( ( 'AUTOMOTIVE_DESIGN { 1 0 10303 214 1 1 1 1 }' ) );
ENDSEC;
DATA;
#1 = MECHANICAL_DESIGN_GEOMETRIC_PRESENTATION_REPRESENTATION( ' ', ( #10, #11, #12, #13, #14, #15, #16, #17, #18, #19 ), #6 );
#2 = PRODUCT_DEFINITION_CONTEXT( '', #20, 'design' );
#3 = APPLICATION_PROTOCOL_DEFINITION( 'international standard', 'automotive_design', 2001, #20 );
#4 = PRODUCT_CATEGORY_RELATIONSHIP( 'NONE', 'NONE', #21, #22 );
#5 = SHAPE_DEFINITION_REPRESENTATION( #23, #24 );
#6 =  ( GEOMETRIC_REPRESENTATION_CONTEXT( 3 )GLOBAL_UNCERTAINTY_ASSIGNED_CONTEXT( ( #27 ) )GLOBAL_UNIT_ASSIGNED_CONTEXT( ( #29, #30, #31 ) )REPRESENTATION_CONTEXT( 'NONE', 'WORKSPACE' ) );
#10 = STYLED_ITEM( '', ( #33 ), #34 );
#11 = STYLED_ITEM( '', ( #35 ), #36 );
#12 = STYLED_ITEM( '', ( #37 ), #38 );
#13 = STYLED_ITEM( '', ( #39 ), #40 );
#14 = STYLED_ITEM( '', ( #41 ), #42 );
#15 = STYLED_ITEM( '', ( #43 ), #44 );
#16 = STYLED_ITEM( '', ( #45 ), #46 );
#17 = STYLED_ITEM( '', ( #47 ), #48 );
#18 = STYLED_ITEM( '', ( #49 ), #50 );
#19 = STYLED_ITEM( '', ( #51 ), #52 );
#20 = APPLICATION_CONTEXT( 'core data for automotive mechanical design processes' );
#21 = PRODUCT_CATEGORY( 'part', 'NONE' );
#22 = PRODUCT_RELATED_PRODUCT_CATEGORY( 'detail', ' ', ( #53 ) );
#23 = PRODUCT_DEFINITION_SHAPE( 'NONE', 'NONE', #54 );
#24 = ADVANCED_BREP_SHAPE_REPRESENTATION( 'Dentino x3', ( #55, #56 ), #6 );
#27 = UNCERTAINTY_MEASURE_WITH_UNIT( LENGTH_MEASURE( 1.00000000000000E-06 ), #29, '', '' );
#29 =  ( CONVERSION_BASED_UNIT( 'METRE', #59 )LENGTH_UNIT(  )NAMED_UNIT( #62 ) );
#30 =  ( NAMED_UNIT( #64 )PLANE_ANGLE_UNIT(  )SI_UNIT( $, .RADIAN. ) );
#31 =  ( NAMED_UNIT( #64 )SI_UNIT( $, .STERADIAN. )SOLID_ANGLE_UNIT(  ) );
#33 = PRESENTATION_STYLE_ASSIGNMENT( ( #70 ) );
#34 = ADVANCED_FACE( 'NONE', ( #71 ), #72, .F. );
#35 = PRESENTATION_STYLE_ASSIGNMENT( ( #73 ) );
#36 = ADVANCED_FACE( 'NONE', ( #74 ), #75, .F. );
#37 = PRESENTATION_STYLE_ASSIGNMENT( ( #76 ) );
#38 = ADVANCED_FACE( 'NONE', ( #77, #78 ), #79, .T. );
#39 = PRESENTATION_STYLE_ASSIGNMENT( ( #80 ) );
#40 = ADVANCED_FACE( 'NONE', ( #81, #82 ), #83, .F. );
#41 = PRESENTATION_STYLE_ASSIGNMENT( ( #84 ) );
#42 = ADVANCED_FACE( 'NONE', ( #85 ), #86, .F. );
#43 = PRESENTATION_STYLE_ASSIGNMENT( ( #87 ) );
#44 = ADVANCED_FACE( 'NONE', ( #88 ), #89, .F. );
#45 = PRESENTATION_STYLE_ASSIGNMENT( ( #90 ) );
#46 = ADVANCED_FACE( 'NONE', ( #91, #92 ), #93, .T. );
#47 = PRESENTATION_STYLE_ASSIGNMENT( ( #94 ) );
#48 = ADVANCED_FACE( 'NONE', ( #95 ), #96, .F. );
#49 = PRESENTATION_STYLE_ASSIGNMENT( ( #97 ) );
#50 = ADVANCED_FACE( 'NONE', ( #98 ), #99, .F. );
#51 = PRESENTATION_STYLE_ASSIGNMENT( ( #100 ) );
#52 = ADVANCED_FACE( 'NONE', ( #101, #102 ), #103, .T. );
#53 = PRODUCT( 'Dentino x3', 'Dentino x3', 'PART-Dentino x3-DESC', ( #104 ) );
#54 = PRODUCT_DEFINITION( 'NONE', 'NONE', #105, #2 );
#55 = MANIFOLD_SOLID_BREP( 'Dentino x3', #106 );
#56 = AXIS2_PLACEMENT_3D( '', #107, #108, #109 );
#59 = LENGTH_MEASURE_WITH_UNIT( LENGTH_MEASURE( 1.00000000000000 ), #110 );
#62 = DIMENSIONAL_EXPONENTS( 1.00000000000000, 0.000000000000000, 0.000000000000000, 0.000000000000000, 0.000000000000000, 0.000000000000000, 0.000000000000000 );
#64 = DIMENSIONAL_EXPONENTS( 0.000000000000000, 0.000000000000000, 0.000000000000000, 0.000000000000000, 0.000000000000000, 0.000000000000000, 0.000000000000000 );
#70 = SURFACE_STYLE_USAGE( .BOTH., #111 );
#71 = FACE_OUTER_BOUND( '', #112, .T. );
#72 = PLANE( '', #113 );
#73 = SURFACE_STYLE_USAGE( .BOTH., #114 );
#74 = FACE_OUTER_BOUND( '', #115, .T. );
#75 = PLANE( '', #116 );
#76 = SURFACE_STYLE_USAGE( .BOTH., #117 );
#77 = FACE_OUTER_BOUND( '', #118, .T. );
#78 = FACE_OUTER_BOUND( '', #119, .T. );
#79 = CYLINDRICAL_SURFACE( '', #120, 0.0107000000000000 );
#80 = SURFACE_STYLE_USAGE( .BOTH., #121 );
#81 = FACE_OUTER_BOUND( '', #122, .T. );
#82 = FACE_OUTER_BOUND( '', #123, .T. );
#83 = CYLINDRICAL_SURFACE( '', #124, 0.00840000000000000 );
#84 = SURFACE_STYLE_USAGE( .BOTH., #125 );
#85 = FACE_OUTER_BOUND( '', #126, .T. );
#86 = PLANE( '', #127 );
#87 = SURFACE_STYLE_USAGE( .BOTH., #128 );
#88 = FACE_OUTER_BOUND( '', #129, .T. );
#89 = PLANE( '', #130 );
#90 = SURFACE_STYLE_USAGE( .BOTH., #131 );
#91 = FACE_OUTER_BOUND( '', #132, .T. );
#92 = FACE_BOUND( '', #133, .T. );
#93 = PLANE( '', #134 );
#94 = SURFACE_STYLE_USAGE( .BOTH., #135 );
#95 = FACE_OUTER_BOUND( '', #136, .T. );
#96 = PLANE( '', #137 );
#97 = SURFACE_STYLE_USAGE( .BOTH., #138 );
#98 = FACE_OUTER_BOUND( '', #139, .T. );
#99 = PLANE( '', #140 );
#100 = SURFACE_STYLE_USAGE( .BOTH., #141 );
#101 = FACE_OUTER_BOUND( '', #142, .T. );
#102 = FACE_BOUND( '', #143, .T. );
#103 = PLANE( '', #144 );
#104 = PRODUCT_CONTEXT( '', #20, 'mechanical' );
#105 = PRODUCT_DEFINITION_FORMATION_WITH_SPECIFIED_SOURCE( ' ', 'NONE', #53, .NOT_KNOWN. );
#106 = CLOSED_SHELL( '', ( #44, #42, #36, #38, #40, #46, #52, #48, #34, #50 ) );
#107 = CARTESIAN_POINT( '', ( 0.000000000000000, 0.000000000000000, 0.000000000000000 ) );
#108 = DIRECTION( '', ( 0.000000000000000, 0.000000000000000, 1.00000000000000 ) );
#109 = DIRECTION( '', ( 1.00000000000000, 0.000000000000000, 0.000000000000000 ) );
#110 =  ( LENGTH_UNIT(  )NAMED_UNIT( #62 )SI_UNIT( $, .METRE. ) );
#111 = SURFACE_SIDE_STYLE( '', ( #146 ) );
#112 = EDGE_LOOP( '', ( #147, #148 ) );
#113 = AXIS2_PLACEMENT_3D( '', #149, #150, #151 );
#114 = SURFACE_SIDE_STYLE( '', ( #152 ) );
#115 = EDGE_LOOP( '', ( #153, #154, #155, #156 ) );
#116 = AXIS2_PLACEMENT_3D( '', #157, #158, #159 );
#117 = SURFACE_SIDE_STYLE( '', ( #160 ) );
#118 = EDGE_LOOP( '', ( #161 ) );
#119 = EDGE_LOOP( '', ( #162 ) );
#120 = AXIS2_PLACEMENT_3D( '', #163, #164, #165 );
#121 = SURFACE_SIDE_STYLE( '', ( #166 ) );
#122 = EDGE_LOOP( '', ( #167, #168, #169, #170, #171, #172, #173, #174, #175, #176, #177, #178 ) );
#123 = EDGE_LOOP( '', ( #179 ) );
#124 = AXIS2_PLACEMENT_3D( '', #180, #181, #182 );
#125 = SURFACE_SIDE_STYLE( '', ( #183 ) );
#126 = EDGE_LOOP( '', ( #184, #185, #186, #187 ) );
#127 = AXIS2_PLACEMENT_3D( '', #188, #189, #190 );
#128 = SURFACE_SIDE_STYLE( '', ( #191 ) );
#129 = EDGE_LOOP( '', ( #192, #193 ) );
#130 = AXIS2_PLACEMENT_3D( '', #194, #195, #196 );
#131 = SURFACE_SIDE_STYLE( '', ( #197 ) );
#132 = EDGE_LOOP( '', ( #198 ) );
#133 = EDGE_LOOP( '', ( #199, #200, #201, #202, #203, #204 ) );
#134 = AXIS2_PLACEMENT_3D( '', #205, #206, #207 );
#135 = SURFACE_SIDE_STYLE( '', ( #208 ) );
#136 = EDGE_LOOP( '', ( #209, #210 ) );
#137 = AXIS2_PLACEMENT_3D( '', #211, #212, #213 );
#138 = SURFACE_SIDE_STYLE( '', ( #214 ) );
#139 = EDGE_LOOP( '', ( #215, #216, #217, #218 ) );
#140 = AXIS2_PLACEMENT_3D( '', #219, #220, #221 );
#141 = SURFACE_SIDE_STYLE( '', ( #222 ) );
#142 = EDGE_LOOP( '', ( #223 ) );
#143 = EDGE_LOOP( '', ( #224 ) );
#144 = AXIS2_PLACEMENT_3D( '', #225, #226, #227 );
#146 = SURFACE_STYLE_FILL_AREA( #228 );
#147 = ORIENTED_EDGE( '', *, *, #229, .F. );
#148 = ORIENTED_EDGE( '', *, *, #230, .F. );
#149 = CARTESIAN_POINT( '', ( 0.00420000000000004, 0.000500000000000000, -0.00727461339178928 ) );
#150 = DIRECTION( '', ( 0.211309130870349, -0.906307787036652, -0.365998150770662 ) );
#151 = DIRECTION( '', ( -1.17300131202896E-17, 0.374453581814993, -0.927245660580799 ) );
#152 = SURFACE_STYLE_FILL_AREA( #231 );
#153 = ORIENTED_EDGE( '', *, *, #232, .F. );
#154 = ORIENTED_EDGE( '', *, *, #233, .T. );
#155 = ORIENTED_EDGE( '', *, *, #234, .T. );
#156 = ORIENTED_EDGE( '', *, *, #235, .T. );
#157 = CARTESIAN_POINT( '', ( -0.00765000000000000, 0.000500000000000000, -0.00346951005186612 ) );
#158 = DIRECTION( '', ( -1.00000000000000, 0.000000000000000, 0.000000000000000 ) );
#159 = DIRECTION( '', ( 0.000000000000000, 0.000000000000000, 1.00000000000000 ) );
#160 = SURFACE_STYLE_FILL_AREA( #236 );
#161 = ORIENTED_EDGE( '', *, *, #237, .F. );
#162 = ORIENTED_EDGE( '', *, *, #238, .T. );
#163 = CARTESIAN_POINT( '', ( 0.000000000000000, -0.00241515310536392, 0.000000000000000 ) );
#164 = DIRECTION( '', ( -0.000000000000000, 1.00000000000000, 0.000000000000000 ) );
#165 = DIRECTION( '', ( 0.000000000000000, 0.000000000000000, -1.00000000000000 ) );
#166 = SURFACE_STYLE_FILL_AREA( #239 );
#167 = ORIENTED_EDGE( '', *, *, #240, .T. );
#168 = ORIENTED_EDGE( '', *, *, #241, .F. );
#169 = ORIENTED_EDGE( '', *, *, #229, .T. );
#170 = ORIENTED_EDGE( '', *, *, #242, .T. );
#171 = ORIENTED_EDGE( '', *, *, #243, .T. );
#172 = ORIENTED_EDGE( '', *, *, #244, .F. );
#173 = ORIENTED_EDGE( '', *, *, #245, .T. );
#174 = ORIENTED_EDGE( '', *, *, #246, .T. );
#175 = ORIENTED_EDGE( '', *, *, #247, .T. );
#176 = ORIENTED_EDGE( '', *, *, #234, .F. );
#177 = ORIENTED_EDGE( '', *, *, #248, .T. );
#178 = ORIENTED_EDGE( '', *, *, #232, .T. );
#179 = ORIENTED_EDGE( '', *, *, #249, .F. );
#180 = CARTESIAN_POINT( '', ( 0.000000000000000, -0.00241515310536392, 0.000000000000000 ) );
#181 = DIRECTION( '', ( -0.000000000000000, 1.00000000000000, 0.000000000000000 ) );
#182 = DIRECTION( '', ( 0.000000000000000, 0.000000000000000, -1.00000000000000 ) );
#183 = SURFACE_STYLE_FILL_AREA( #250 );
#184 = ORIENTED_EDGE( '', *, *, #242, .F. );
#185 = ORIENTED_EDGE( '', *, *, #230, .T. );
#186 = ORIENTED_EDGE( '', *, *, #241, .T. );
#187 = ORIENTED_EDGE( '', *, *, #251, .T. );
#188 = CARTESIAN_POINT( '', ( 0.00682968384360154, 0.000500000000000000, -0.00489033931301787 ) );
#189 = DIRECTION( '', ( 0.500000000000004, 0.000000000000000, -0.866025403784436 ) );
#190 = DIRECTION( '', ( 0.000000000000000, -1.00000000000000, 0.000000000000000 ) );
#191 = SURFACE_STYLE_FILL_AREA( #252 );
#192 = ORIENTED_EDGE( '', *, *, #248, .F. );
#193 = ORIENTED_EDGE( '', *, *, #233, .F. );
#194 = CARTESIAN_POINT( '', ( -0.00840000000000001, 0.000500000000000000, 0.000000000000000 ) );
#195 = DIRECTION( '', ( -0.422618261740697, -0.906307787036651, 0.000000000000000 ) );
#196 = DIRECTION( '', ( -0.906307787036651, 0.422618261740697, 0.000000000000000 ) );
#197 = SURFACE_STYLE_FILL_AREA( #253 );
#198 = ORIENTED_EDGE( '', *, *, #237, .T. );
#199 = ORIENTED_EDGE( '', *, *, #240, .F. );
#200 = ORIENTED_EDGE( '', *, *, #235, .F. );
#201 = ORIENTED_EDGE( '', *, *, #247, .F. );
#202 = ORIENTED_EDGE( '', *, *, #254, .F. );
#203 = ORIENTED_EDGE( '', *, *, #243, .F. );
#204 = ORIENTED_EDGE( '', *, *, #251, .F. );
#205 = CARTESIAN_POINT( '', ( 0.00840000000000000, 0.000000000000000, 0.000000000000000 ) );
#206 = DIRECTION( '', ( 0.000000000000000, -1.00000000000000, 0.000000000000000 ) );
#207 = DIRECTION( '', ( 0.000000000000000, 0.000000000000000, -1.00000000000000 ) );
#208 = SURFACE_STYLE_FILL_AREA( #255 );
#209 = ORIENTED_EDGE( '', *, *, #245, .F. );
#210 = ORIENTED_EDGE( '', *, *, #256, .F. );
#211 = CARTESIAN_POINT( '', ( 0.00419999999999994, 0.000500000000000000, 0.00727461339178933 ) );
#212 = DIRECTION( '', ( 0.211309130870345, -0.906307787036651, 0.365998150770666 ) );
#213 = DIRECTION( '', ( -0.973879879794451, -0.227063823035606, 0.000000000000000 ) );
#214 = SURFACE_STYLE_FILL_AREA( #257 );
#215 = ORIENTED_EDGE( '', *, *, #246, .F. );
#216 = ORIENTED_EDGE( '', *, *, #256, .T. );
#217 = ORIENTED_EDGE( '', *, *, #244, .T. );
#218 = ORIENTED_EDGE( '', *, *, #254, .T. );
#219 = CARTESIAN_POINT( '', ( 0.000820316156398401, 0.000500000000000000, 0.00835984936488402 ) );
#220 = DIRECTION( '', ( 0.499999999999992, 0.000000000000000, 0.866025403784443 ) );
#221 = DIRECTION( '', ( -0.000000000000000, -1.00000000000000, 0.000000000000000 ) );
#222 = SURFACE_STYLE_FILL_AREA( #258 );
#223 = ORIENTED_EDGE( '', *, *, #238, .F. );
#224 = ORIENTED_EDGE( '', *, *, #249, .T. );
#225 = CARTESIAN_POINT( '', ( 0.00840000000000000, 0.00180000000000000, 0.000000000000000 ) );
#226 = DIRECTION( '', ( 0.000000000000000, 1.00000000000000, 0.000000000000000 ) );
#227 = DIRECTION( '', ( 1.00000000000000, 0.000000000000000, -0.000000000000000 ) );
#228 = FILL_AREA_STYLE( '', ( #259 ) );
#229 = EDGE_CURVE( 'NONE', #260, #261, #262, .T. );
#230 = EDGE_CURVE( 'NONE', #261, #260, #263, .T. );
#231 = FILL_AREA_STYLE( '', ( #264 ) );
#232 = EDGE_CURVE( 'NONE', #265, #266, #267, .T. );
#233 = EDGE_CURVE( 'NONE', #265, #268, #269, .T. );
#234 = EDGE_CURVE( 'NONE', #268, #270, #271, .T. );
#235 = EDGE_CURVE( 'NONE', #270, #266, #272, .T. );
#236 = FILL_AREA_STYLE( '', ( #273 ) );
#237 = EDGE_CURVE( 'NONE', #274, #274, #275, .T. );
#238 = EDGE_CURVE( 'NONE', #276, #276, #277, .T. );
#239 = FILL_AREA_STYLE( '', ( #278 ) );
#240 = EDGE_CURVE( 'NONE', #266, #279, #280, .T. );
#241 = EDGE_CURVE( 'NONE', #260, #279, #281, .T. );
#242 = EDGE_CURVE( 'NONE', #261, #282, #283, .T. );
#243 = EDGE_CURVE( 'NONE', #282, #284, #285, .T. );
#244 = EDGE_CURVE( 'NONE', #286, #284, #287, .T. );
#245 = EDGE_CURVE( 'NONE', #286, #288, #289, .T. );
#246 = EDGE_CURVE( 'NONE', #288, #290, #291, .T. );
#247 = EDGE_CURVE( 'NONE', #290, #270, #292, .T. );
#248 = EDGE_CURVE( 'NONE', #268, #265, #293, .T. );
#249 = EDGE_CURVE( 'NONE', #294, #294, #295, .T. );
#250 = FILL_AREA_STYLE( '', ( #296 ) );
#251 = EDGE_CURVE( 'NONE', #279, #282, #297, .T. );
#252 = FILL_AREA_STYLE( '', ( #298 ) );
#253 = FILL_AREA_STYLE( '', ( #299 ) );
#254 = EDGE_CURVE( 'NONE', #284, #290, #300, .T. );
#255 = FILL_AREA_STYLE( '', ( #301 ) );
#256 = EDGE_CURVE( 'NONE', #288, #286, #302, .T. );
#257 = FILL_AREA_STYLE( '', ( #303 ) );
#258 = FILL_AREA_STYLE( '', ( #304 ) );
#259 = FILL_AREA_STYLE_COLOUR( '', #305 );
#260 = VERTEX_POINT( 'NONE', #306 );
#261 = VERTEX_POINT( 'NONE', #307 );
#262 = ( BOUNDED_CURVE(  )B_SPLINE_CURVE( 3, ( #310, #311, #312, #313 ), .UNSPECIFIED., .F., .F. )B_SPLINE_CURVE_WITH_KNOTS( ( 4, 4 ), ( 2.71580645573664, 3.56737885144295 ), .UNSPECIFIED. )CURVE(  )GEOMETRIC_REPRESENTATION_ITEM(  )RATIONAL_B_SPLINE_CURVE( ( 1.00000000000000, 0.940476190476190, 0.940476190476190, 1.00000000000000 ) )REPRESENTATION_ITEM( '' ) );
#263 = LINE( '', #319, #320 );
#264 = FILL_AREA_STYLE_COLOUR( '', #321 );
#265 = VERTEX_POINT( 'NONE', #322 );
#266 = VERTEX_POINT( 'NONE', #323 );
#267 = LINE( '', #324, #325 );
#268 = VERTEX_POINT( 'NONE', #326 );
#269 = LINE( '', #327, #328 );
#270 = VERTEX_POINT( 'NONE', #329 );
#271 = LINE( '', #330, #331 );
#272 = LINE( '', #332, #333 );
#273 = FILL_AREA_STYLE_COLOUR( '', #334 );
#274 = VERTEX_POINT( '', #335 );
#275 = CIRCLE( '', #336, 0.0107000000000000 );
#276 = VERTEX_POINT( '', #337 );
#277 = CIRCLE( '', #338, 0.0107000000000000 );
#278 = FILL_AREA_STYLE_COLOUR( '', #339 );
#279 = VERTEX_POINT( 'NONE', #340 );
#280 = CIRCLE( '', #341, 0.00840000000000000 );
#281 = LINE( '', #342, #343 );
#282 = VERTEX_POINT( 'NONE', #344 );
#283 = LINE( '', #345, #346 );
#284 = VERTEX_POINT( 'NONE', #347 );
#285 = CIRCLE( '', #348, 0.00840000000000000 );
#286 = VERTEX_POINT( 'NONE', #349 );
#287 = LINE( '', #350, #351 );
#288 = VERTEX_POINT( 'NONE', #352 );
#289 = ( BOUNDED_CURVE(  )B_SPLINE_CURVE( 3, ( #355, #356, #357, #358 ), .UNSPECIFIED., .F., .F. )B_SPLINE_CURVE_WITH_KNOTS( ( 4, 4 ), ( 2.71580645573664, 3.56737885144295 ), .UNSPECIFIED. )CURVE(  )GEOMETRIC_REPRESENTATION_ITEM(  )RATIONAL_B_SPLINE_CURVE( ( 1.00000000000000, 0.940476190476190, 0.940476190476190, 1.00000000000000 ) )REPRESENTATION_ITEM( '' ) );
#290 = VERTEX_POINT( 'NONE', #364 );
#291 = LINE( '', #365, #366 );
#292 = CIRCLE( '', #367, 0.00840000000000000 );
#293 = ( BOUNDED_CURVE(  )B_SPLINE_CURVE( 3, ( #370, #371, #372, #373 ), .UNSPECIFIED., .F., .F. )B_SPLINE_CURVE_WITH_KNOTS( ( 4, 4 ), ( 2.71580645573664, 3.56737885144295 ), .UNSPECIFIED. )CURVE(  )GEOMETRIC_REPRESENTATION_ITEM(  )RATIONAL_B_SPLINE_CURVE( ( 1.00000000000000, 0.940476190476190, 0.940476190476190, 1.00000000000000 ) )REPRESENTATION_ITEM( '' ) );
#294 = VERTEX_POINT( '', #379 );
#295 = CIRCLE( '', #380, 0.00840000000000000 );
#296 = FILL_AREA_STYLE_COLOUR( '', #381 );
#297 = LINE( '', #382, #383 );
#298 = FILL_AREA_STYLE_COLOUR( '', #384 );
#299 = FILL_AREA_STYLE_COLOUR( '', #385 );
#300 = LINE( '', #386, #387 );
#301 = FILL_AREA_STYLE_COLOUR( '', #388 );
#302 = LINE( '', #389, #390 );
#303 = FILL_AREA_STYLE_COLOUR( '', #391 );
#304 = FILL_AREA_STYLE_COLOUR( '', #392 );
#305 = COLOUR_RGB( '', 0.250980407000000, 0.250980407000000, 0.250980407000000 );
#306 = CARTESIAN_POINT( '', ( 0.000820316156398517, 0.000150269256383750, -0.00835984936488401 ) );
#307 = CARTESIAN_POINT( '', ( 0.00682968384360154, 0.000150269256383750, -0.00489033931301787 ) );
#310 = CARTESIAN_POINT( '', ( 0.000820316156408517, 0.000150269256393750, -0.00835984936489401 ) );
#311 = CARTESIAN_POINT( '', ( 0.00326796015670823, 0.000623955200279044, -0.00811967255895875 ) );
#312 = CARTESIAN_POINT( '', ( 0.00539786262812196, 0.000623955200279045, -0.00688997279374037 ) );
#313 = CARTESIAN_POINT( '', ( 0.00682968384361155, 0.000150269256393750, -0.00489033931302787 ) );
#319 = CARTESIAN_POINT( '', ( 0.00682968384361155, 0.000150269256393750, -0.00489033931302787 ) );
#320 = VECTOR( '', #393, 1.00000000000000 );
#321 = COLOUR_RGB( '', 0.250980407000000, 0.250980407000000, 0.250980407000000 );
#322 = CARTESIAN_POINT( '', ( -0.00765000000000000, 0.000150269256383749, -0.00346951005186612 ) );
#323 = CARTESIAN_POINT( '', ( -0.00765000000000000, 0.000000000000000, -0.00346951005186612 ) );
#324 = CARTESIAN_POINT( '', ( -0.00765000000001000, 0.000500000000010000, -0.00346951005187612 ) );
#325 = VECTOR( '', #394, 1.00000000000000 );
#326 = CARTESIAN_POINT( '', ( -0.00765000000000000, 0.000150269256383749, 0.00346951005186612 ) );
#327 = CARTESIAN_POINT( '', ( -0.00765000000001000, 0.000150269256393749, -0.00346951005187612 ) );
#328 = VECTOR( '', #395, 1.00000000000000 );
#329 = CARTESIAN_POINT( '', ( -0.00765000000000000, 0.000000000000000, 0.00346951005186612 ) );
#330 = CARTESIAN_POINT( '', ( -0.00765000000001000, 0.000500000000010000, 0.00346951005187612 ) );
#331 = VECTOR( '', #396, 1.00000000000000 );
#332 = CARTESIAN_POINT( '', ( -0.00765000000001000, 0.000000000000000, -0.00346951005187612 ) );
#333 = VECTOR( '', #397, 1.00000000000000 );
#334 = COLOUR_RGB( '', 0.250980407000000, 0.250980407000000, 0.250980407000000 );
#335 = CARTESIAN_POINT( '', ( 0.000000000000000, 0.000000000000000, -0.0107000000000100 ) );
#336 = AXIS2_PLACEMENT_3D( '', #398, #399, #400 );
#337 = CARTESIAN_POINT( '', ( 0.000000000000000, 0.00180000000001000, -0.0107000000000100 ) );
#338 = AXIS2_PLACEMENT_3D( '', #401, #402, #403 );
#339 = COLOUR_RGB( '', 0.250980407000000, 0.250980407000000, 0.250980407000000 );
#340 = CARTESIAN_POINT( '', ( 0.000820316156398523, 0.000000000000000, -0.00835984936488401 ) );
#341 = AXIS2_PLACEMENT_3D( '', #404, #405, #406 );
#342 = CARTESIAN_POINT( '', ( 0.000820316156408517, 0.000500000000010000, -0.00835984936489401 ) );
#343 = VECTOR( '', #407, 1.00000000000000 );
#344 = CARTESIAN_POINT( '', ( 0.00682968384360154, 0.000000000000000, -0.00489033931301787 ) );
#345 = CARTESIAN_POINT( '', ( 0.00682968384361155, 0.000500000000010000, -0.00489033931302787 ) );
#346 = VECTOR( '', #408, 1.00000000000000 );
#347 = CARTESIAN_POINT( '', ( 0.00682968384360148, 0.000000000000000, 0.00489033931301796 ) );
#348 = AXIS2_PLACEMENT_3D( '', #409, #410, #411 );
#349 = CARTESIAN_POINT( '', ( 0.00682968384360148, 0.000150269256383750, 0.00489033931301796 ) );
#350 = CARTESIAN_POINT( '', ( 0.00682968384361148, 0.000500000000010000, 0.00489033931302796 ) );
#351 = VECTOR( '', #412, 1.00000000000000 );
#352 = CARTESIAN_POINT( '', ( 0.000820316156398401, 0.000150269256383750, 0.00835984936488402 ) );
#355 = CARTESIAN_POINT( '', ( 0.00682968384361148, 0.000150269256393750, 0.00489033931302796 ) );
#356 = CARTESIAN_POINT( '', ( 0.00539786262812187, 0.000623955200279047, 0.00688997279374044 ) );
#357 = CARTESIAN_POINT( '', ( 0.00326796015670812, 0.000623955200279047, 0.00811967255895880 ) );
#358 = CARTESIAN_POINT( '', ( 0.000820316156408401, 0.000150269256393750, 0.00835984936489402 ) );
#364 = CARTESIAN_POINT( '', ( 0.000820316156398401, 0.000000000000000, 0.00835984936488402 ) );
#365 = CARTESIAN_POINT( '', ( 0.000820316156408401, 0.000500000000010000, 0.00835984936489402 ) );
#366 = VECTOR( '', #413, 1.00000000000000 );
#367 = AXIS2_PLACEMENT_3D( '', #414, #415, #416 );
#370 = CARTESIAN_POINT( '', ( -0.00765000000001000, 0.000150269256393749, 0.00346951005187612 ) );
#371 = CARTESIAN_POINT( '', ( -0.00866582278482013, 0.000623955200279044, 0.00122969976522837 ) );
#372 = CARTESIAN_POINT( '', ( -0.00866582278482013, 0.000623955200279045, -0.00122969976522837 ) );
#373 = CARTESIAN_POINT( '', ( -0.00765000000001000, 0.000150269256393749, -0.00346951005187612 ) );
#379 = CARTESIAN_POINT( '', ( 0.000000000000000, 0.00180000000001000, -0.00840000000001000 ) );
#380 = AXIS2_PLACEMENT_3D( '', #417, #418, #419 );
#381 = COLOUR_RGB( '', 0.250980407000000, 0.250980407000000, 0.250980407000000 );
#382 = CARTESIAN_POINT( '', ( 0.00682968384361155, 0.000000000000000, -0.00489033931302787 ) );
#383 = VECTOR( '', #420, 1.00000000000000 );
#384 = COLOUR_RGB( '', 0.250980407000000, 0.250980407000000, 0.250980407000000 );
#385 = COLOUR_RGB( '', 0.250980407000000, 0.250980407000000, 0.250980407000000 );
#386 = CARTESIAN_POINT( '', ( 0.000820316156408401, 0.000000000000000, 0.00835984936489402 ) );
#387 = VECTOR( '', #421, 1.00000000000000 );
#388 = COLOUR_RGB( '', 0.250980407000000, 0.250980407000000, 0.250980407000000 );
#389 = CARTESIAN_POINT( '', ( 0.000820316156408401, 0.000150269256393750, 0.00835984936489402 ) );
#390 = VECTOR( '', #422, 1.00000000000000 );
#391 = COLOUR_RGB( '', 0.250980407000000, 0.250980407000000, 0.250980407000000 );
#392 = COLOUR_RGB( '', 0.250980407000000, 0.250980407000000, 0.250980407000000 );
#393 = DIRECTION( '', ( -0.866025403784434, 0.000000000000000, -0.500000000000007 ) );
#394 = DIRECTION( '', ( 0.000000000000000, -1.00000000000000, 0.000000000000000 ) );
#395 = DIRECTION( '', ( 0.000000000000000, 0.000000000000000, 1.00000000000000 ) );
#396 = DIRECTION( '', ( 0.000000000000000, -1.00000000000000, 0.000000000000000 ) );
#397 = DIRECTION( '', ( 0.000000000000000, 0.000000000000000, -1.00000000000000 ) );
#398 = CARTESIAN_POINT( '', ( 0.000000000000000, 0.000000000000000, 0.000000000000000 ) );
#399 = DIRECTION( '', ( 0.000000000000000, -1.00000000000000, 0.000000000000000 ) );
#400 = DIRECTION( '', ( 0.000000000000000, 0.000000000000000, -1.00000000000000 ) );
#401 = CARTESIAN_POINT( '', ( 0.000000000000000, 0.00180000000001000, 0.000000000000000 ) );
#402 = DIRECTION( '', ( 0.000000000000000, -1.00000000000000, 0.000000000000000 ) );
#403 = DIRECTION( '', ( 0.000000000000000, 0.000000000000000, -1.00000000000000 ) );
#404 = CARTESIAN_POINT( '', ( 0.000000000000000, 0.000000000000000, 0.000000000000000 ) );
#405 = DIRECTION( '', ( 0.000000000000000, -1.00000000000000, 0.000000000000000 ) );
#406 = DIRECTION( '', ( 0.000000000000000, 0.000000000000000, -1.00000000000000 ) );
#407 = DIRECTION( '', ( 0.000000000000000, -1.00000000000000, 0.000000000000000 ) );
#408 = DIRECTION( '', ( 0.000000000000000, -1.00000000000000, 0.000000000000000 ) );
#409 = CARTESIAN_POINT( '', ( 0.000000000000000, 0.000000000000000, 0.000000000000000 ) );
#410 = DIRECTION( '', ( 0.000000000000000, -1.00000000000000, 0.000000000000000 ) );
#411 = DIRECTION( '', ( 0.000000000000000, 0.000000000000000, -1.00000000000000 ) );
#412 = DIRECTION( '', ( 0.000000000000000, -1.00000000000000, 0.000000000000000 ) );
#413 = DIRECTION( '', ( 0.000000000000000, -1.00000000000000, 0.000000000000000 ) );
#414 = CARTESIAN_POINT( '', ( 0.000000000000000, 0.000000000000000, 0.000000000000000 ) );
#415 = DIRECTION( '', ( 0.000000000000000, -1.00000000000000, 0.000000000000000 ) );
#416 = DIRECTION( '', ( 0.000000000000000, 0.000000000000000, -1.00000000000000 ) );
#417 = CARTESIAN_POINT( '', ( 0.000000000000000, 0.00180000000001000, 0.000000000000000 ) );
#418 = DIRECTION( '', ( 0.000000000000000, -1.00000000000000, 0.000000000000000 ) );
#419 = DIRECTION( '', ( 0.000000000000000, 0.000000000000000, -1.00000000000000 ) );
#420 = DIRECTION( '', ( 0.866025403784434, 0.000000000000000, 0.500000000000007 ) );
#421 = DIRECTION( '', ( -0.866025403784441, 0.000000000000000, 0.499999999999995 ) );
#422 = DIRECTION( '', ( 0.866025403784441, 0.000000000000000, -0.499999999999995 ) );
ENDSEC;
END-ISO-10303-21;
